ISO-10303-21;
HEADER;
FILE_DESCRIPTION (( 'STEP AP214' ),
    '1' );
FILE_NAME ('entretoise-cardan-smaller-thicker.STEP',
    '2022-10-05T13:20:50',
    ( 'Windows User' ),
    ( '' ),
    'SwSTEP 2.0',
    'SolidWorks 2020',
    '' );
FILE_SCHEMA (( 'AUTOMOTIVE_DESIGN' ));
ENDSEC;

DATA;
#1 = CARTESIAN_POINT ( 'NONE',  ( -30.48896396067274495, 11.99999999999997335, -28.95704297740572741 ) ) ;
#2 = DIRECTION ( 'NONE',  ( 0.000000000000000000, 0.000000000000000000, 1.000000000000000000 ) ) ;
#3 = CIRCLE ( 'NONE', #129, 14.49999999999999822 ) ;
#4 = DIRECTION ( 'NONE',  ( 0.000000000000000000, 1.000000000000000000, 0.000000000000000000 ) ) ;
#5 = CARTESIAN_POINT ( 'NONE',  ( -30.48896396067274139, 15.00000000000000000, -10.95704297740572919 ) ) ;
#6 = ORIENTED_EDGE ( 'NONE', *, *, #138, .F. ) ;
#7 = EDGE_LOOP ( 'NONE', ( #112, #124, #153, #118 ) ) ;
#8 = FACE_OUTER_BOUND ( 'NONE', #7, .T. ) ;
#9 = VERTEX_POINT ( 'NONE', #183 ) ;
#10 = LINE ( 'NONE', #5, #218 ) ;
#11 = AXIS2_PLACEMENT_3D ( 'NONE', #194, #126, #109 ) ;
#12 = VERTEX_POINT ( 'NONE', #78 ) ;
#13 = ORIENTED_EDGE ( 'NONE', *, *, #231, .T. ) ;
#14 = DIRECTION ( 'NONE',  ( -0.000000000000000000, -1.000000000000000000, -0.000000000000000000 ) ) ;
#15 = AXIS2_PLACEMENT_3D ( 'NONE', #42, #43, #222 ) ;
#16 = STYLED_ITEM ( 'NONE', ( #26 ), #134 ) ;
#17 = FILL_AREA_STYLE ('',( #37 ) ) ;
#18 = PRODUCT_DEFINITION ( 'UNKNOWN', '', #161, #166 ) ;
#19 = PRESENTATION_STYLE_ASSIGNMENT (( #230 ) ) ;
#20 = DIRECTION ( 'NONE',  ( 0.000000000000000000, 1.000000000000000000, 0.000000000000000000 ) ) ;
#21 = CARTESIAN_POINT ( 'NONE',  ( -30.48896396067274139, 11.99999999999997335, -43.45704297740572741 ) ) ;
#22 = FACE_OUTER_BOUND ( 'NONE', #192, .T. ) ;
#23 = LINE ( 'NONE', #100, #36 ) ;
#24 = CARTESIAN_POINT ( 'NONE',  ( -30.48896396067274495, 0.000000000000000000, -14.45704297740572919 ) ) ;
#25 = ORIENTED_EDGE ( 'NONE', *, *, #193, .T. ) ;
#26 = PRESENTATION_STYLE_ASSIGNMENT (( #188 ) ) ;
#27 = EDGE_CURVE ( 'NONE', #9, #86, #23, .T. ) ;
#28 = FACE_BOUND ( 'NONE', #189, .T. ) ;
#29 = DIRECTION ( 'NONE',  ( 0.000000000000000000, 0.000000000000000000, 1.000000000000000000 ) ) ;
#30 = VERTEX_POINT ( 'NONE', #48 ) ;
#31 = CIRCLE ( 'NONE', #92, 18.00000000000000000 ) ;
#32 = ORIENTED_EDGE ( 'NONE', *, *, #80, .F. ) ;
#33 = DIRECTION ( 'NONE',  ( 0.000000000000000000, 0.000000000000000000, 1.000000000000000000 ) ) ;
#34 = ORIENTED_EDGE ( 'NONE', *, *, #163, .T. ) ;
#35 = FACE_OUTER_BOUND ( 'NONE', #204, .T. ) ;
#36 = VECTOR ( 'NONE', #209, 1000.000000000000000 ) ;
#37 = FILL_AREA_STYLE_COLOUR ( '', #214 ) ;
#38 = AXIS2_PLACEMENT_3D ( 'NONE', #110, #114, #181 ) ;
#39 = ADVANCED_FACE ( 'NONE', ( #28, #83 ), #85, .F. ) ;
#40 = EDGE_CURVE ( 'NONE', #9, #120, #121, .T. ) ;
#41 =( NAMED_UNIT ( * ) PLANE_ANGLE_UNIT ( ) SI_UNIT ( $, .RADIAN. ) );
#42 = CARTESIAN_POINT ( 'NONE',  ( -30.48896396067274495, 11.99999999999997335, -28.95704297740572741 ) ) ;
#43 = DIRECTION ( 'NONE',  ( 0.000000000000000000, 1.000000000000000000, 0.000000000000000000 ) ) ;
#44 = VECTOR ( 'NONE', #145, 1000.000000000000000 ) ;
#45 = SURFACE_SIDE_STYLE ('',( #170 ) ) ;
#46 = EDGE_CURVE ( 'NONE', #120, #12, #221, .T. ) ;
#47 = APPLICATION_CONTEXT ( 'automotive_design' ) ;
#48 = CARTESIAN_POINT ( 'NONE',  ( -30.48896396067274139, 0.000000000000000000, -10.95704297740572919 ) ) ;
#49 = EDGE_LOOP ( 'NONE', ( #190, #176 ) ) ;
#50 = DIRECTION ( 'NONE',  ( 0.000000000000000000, 0.6246950475544251757, 0.7808688094430294990 ) ) ;
#51 = VERTEX_POINT ( 'NONE', #207 ) ;
#52 = DIRECTION ( 'NONE',  ( 0.000000000000000000, 0.000000000000000000, 1.000000000000000000 ) ) ;
#53 = ORIENTED_EDGE ( 'NONE', *, *, #158, .T. ) ;
#54 = APPLICATION_PROTOCOL_DEFINITION ( 'draft international standard', 'automotive_design', 1998, #215 ) ;
#55 = ORIENTED_EDGE ( 'NONE', *, *, #73, .T. ) ;
#56 = PRODUCT_DEFINITION_SHAPE ( 'NONE', 'NONE',  #18 ) ;
#57 = DIRECTION ( 'NONE',  ( 0.000000000000000000, 0.000000000000000000, 1.000000000000000000 ) ) ;
#58 = CLOSED_SHELL ( 'NONE', ( #171, #89, #131, #76, #39, #206, #178 ) ) ;
#59 = FACE_OUTER_BOUND ( 'NONE', #229, .T. ) ;
#60 = ORIENTED_EDGE ( 'NONE', *, *, #46, .T. ) ;
#61 =( NAMED_UNIT ( * ) SI_UNIT ( $, .STERADIAN. ) SOLID_ANGLE_UNIT ( ) );
#62 = AXIS2_PLACEMENT_3D ( 'NONE', #128, #14, #57 ) ;
#63 = DIRECTION ( 'NONE',  ( -0.000000000000000000, 1.000000000000000000, -0.000000000000000000 ) ) ;
#64 = ORIENTED_EDGE ( 'NONE', *, *, #123, .F. ) ;
#65 =( LENGTH_UNIT ( ) NAMED_UNIT ( * ) SI_UNIT ( .MILLI., .METRE. ) );
#66 = DIRECTION ( 'NONE',  ( 0.000000000000000000, 0.000000000000000000, 1.000000000000000000 ) ) ;
#67 = ORIENTED_EDGE ( 'NONE', *, *, #40, .T. ) ;
#68 = DIRECTION ( 'NONE',  ( 1.000000000000000000, 0.000000000000000000, 0.000000000000000000 ) ) ;
#69 = ORIENTED_EDGE ( 'NONE', *, *, #27, .F. ) ;
#70 = FACE_OUTER_BOUND ( 'NONE', #160, .T. ) ;
#71 =( NAMED_UNIT ( * ) PLANE_ANGLE_UNIT ( ) SI_UNIT ( $, .RADIAN. ) );
#72 = PRODUCT_RELATED_PRODUCT_CATEGORY ( 'part', '', ( #75 ) ) ;
#73 = EDGE_CURVE ( 'NONE', #12, #86, #144, .T. ) ;
#74 = CIRCLE ( 'NONE', #175, 14.49999999999999822 ) ;
#75 = PRODUCT ( 'entretoise-cardan-smaller-thicker', 'entretoise-cardan-smaller-thicker', '', ( #141 ) ) ;
#76 = ADVANCED_FACE ( 'NONE', ( #59 ), #200, .T. ) ;
#77 = AXIS2_PLACEMENT_3D ( 'NONE', #1, #79, #33 ) ;
#78 = CARTESIAN_POINT ( 'NONE',  ( -30.48896396067274495, 11.99999999999997335, -14.45704297740572919 ) ) ;
#79 = DIRECTION ( 'NONE',  ( 0.000000000000000000, 1.000000000000000000, 0.000000000000000000 ) ) ;
#80 = EDGE_CURVE ( 'NONE', #86, #12, #3, .T. ) ;
#81 = VERTEX_POINT ( 'NONE', #198 ) ;
#82 = FILL_AREA_STYLE_COLOUR ( '', #201 ) ;
#83 = FACE_OUTER_BOUND ( 'NONE', #49, .T. ) ;
#84 = DIRECTION ( 'NONE',  ( -0.000000000000000000, -1.000000000000000000, -0.000000000000000000 ) ) ;
#85 = PLANE ( 'NONE',  #165 ) ;
#86 = VERTEX_POINT ( 'NONE', #21 ) ;
#87 = DIRECTION ( 'NONE',  ( 0.000000000000000000, 0.000000000000000000, 1.000000000000000000 ) ) ;
#88 = AXIS2_PLACEMENT_3D ( 'NONE', #169, #4, #29 ) ;
#89 = ADVANCED_FACE ( 'NONE', ( #233 ), #224, .F. ) ;
#90 =( NAMED_UNIT ( * ) SI_UNIT ( $, .STERADIAN. ) SOLID_ANGLE_UNIT ( ) );
#91 = CIRCLE ( 'NONE', #88, 18.00000000000000000 ) ;
#92 = AXIS2_PLACEMENT_3D ( 'NONE', #116, #172, #66 ) ;
#93 = SURFACE_STYLE_FILL_AREA ( #17 ) ;
#94 = CARTESIAN_POINT ( 'NONE',  ( -30.48896396067274495, 0.000000000000000000, -46.95704297740572741 ) ) ;
#95 = LINE ( 'NONE', #102, #143 ) ;
#96 = CARTESIAN_POINT ( 'NONE',  ( -30.48896396067274495, -6.000000000000001776, -28.95704297740572741 ) ) ;
#97 = UNCERTAINTY_MEASURE_WITH_UNIT (LENGTH_MEASURE( 1.000000000000000082E-05 ), #146, 'distance_accuracy_value', 'NONE');
#98 = CARTESIAN_POINT ( 'NONE',  ( -30.48896396067274495, 0.000000000000000000, -28.95704297740572741 ) ) ;
#99 = AXIS2_PLACEMENT_3D ( 'NONE', #107, #216, #52 ) ;
#100 = CARTESIAN_POINT ( 'NONE',  ( -30.48896396067274139, -6.000000000000001776, -43.45704297740572741 ) ) ;
#101 = LINE ( 'NONE', #226, #105 ) ;
#102 = CARTESIAN_POINT ( 'NONE',  ( -30.48896396067274139, 11.99999999999997335, -43.45704297740572741 ) ) ;
#103 = AXIS2_PLACEMENT_3D ( 'NONE', #115, #155, #185 ) ;
#104 = CARTESIAN_POINT ( 'NONE',  ( 0.000000000000000000, 0.000000000000000000, 0.000000000000000000 ) ) ;
#105 = VECTOR ( 'NONE', #50, 1000.000000000000114 ) ;
#106 = CYLINDRICAL_SURFACE ( 'NONE', #223, 18.00000000000000355 ) ;
#107 = CARTESIAN_POINT ( 'NONE',  ( -30.48896396067274495, 11.99999999999997335, -28.95704297740572741 ) ) ;
#108 = STYLED_ITEM ( 'NONE', ( #19 ), #211 ) ;
#109 = DIRECTION ( 'NONE',  ( 0.000000000000000000, 0.000000000000000000, 1.000000000000000000 ) ) ;
#110 = CARTESIAN_POINT ( 'NONE',  ( -30.48896396067274495, 15.00000000000000000, -28.95704297740572741 ) ) ;
#111 = UNCERTAINTY_MEASURE_WITH_UNIT (LENGTH_MEASURE( 1.000000000000000082E-05 ), #65, 'distance_accuracy_value', 'NONE');
#112 = ORIENTED_EDGE ( 'NONE', *, *, #138, .T. ) ;
#113 = EDGE_CURVE ( 'NONE', #30, #213, #31, .T. ) ;
#114 = DIRECTION ( 'NONE',  ( -0.000000000000000000, -1.000000000000000000, -0.000000000000000000 ) ) ;
#115 = CARTESIAN_POINT ( 'NONE',  ( -30.48896396067274495, 14.79999999999997939, -28.95704297740572741 ) ) ;
#116 = CARTESIAN_POINT ( 'NONE',  ( -30.48896396067274495, 0.000000000000000000, -28.95704297740572741 ) ) ;
#117 = ORIENTED_EDGE ( 'NONE', *, *, #40, .F. ) ;
#118 = ORIENTED_EDGE ( 'NONE', *, *, #231, .F. ) ;
#119 =( NAMED_UNIT ( * ) PLANE_ANGLE_UNIT ( ) SI_UNIT ( $, .RADIAN. ) );
#120 = VERTEX_POINT ( 'NONE', #24 ) ;
#121 = CIRCLE ( 'NONE', #127, 14.49999999999999822 ) ;
#122 = ORIENTED_EDGE ( 'NONE', *, *, #46, .F. ) ;
#123 = EDGE_CURVE ( 'NONE', #51, #30, #10, .T. ) ;
#124 = ORIENTED_EDGE ( 'NONE', *, *, #123, .T. ) ;
#125 = ORIENTED_EDGE ( 'NONE', *, *, #80, .T. ) ;
#126 = DIRECTION ( 'NONE',  ( -0.000000000000000000, 1.000000000000000000, -0.000000000000000000 ) ) ;
#127 = AXIS2_PLACEMENT_3D ( 'NONE', #98, #147, #203 ) ;
#128 = CARTESIAN_POINT ( 'NONE',  ( -30.48896396067274495, 14.79999999999997939, -28.95704297740572741 ) ) ;
#129 = AXIS2_PLACEMENT_3D ( 'NONE', #184, #132, #2 ) ;
#130 = DIRECTION ( 'NONE',  ( 0.000000000000000000, 1.000000000000000000, 0.000000000000000000 ) ) ;
#131 = ADVANCED_FACE ( 'NONE', ( #8 ), #106, .T. ) ;
#132 = DIRECTION ( 'NONE',  ( 0.000000000000000000, 1.000000000000000000, 0.000000000000000000 ) ) ;
#133 =( GEOMETRIC_REPRESENTATION_CONTEXT ( 3 ) GLOBAL_UNCERTAINTY_ASSIGNED_CONTEXT ( ( #202 ) ) GLOBAL_UNIT_ASSIGNED_CONTEXT ( ( #232, #41, #90 ) ) REPRESENTATION_CONTEXT ( 'NONE', 'WORKASPACE' ) );
#134 = MANIFOLD_SOLID_BREP ( 'Chamfer10', #58 ) ;
#135 = AXIS2_PLACEMENT_3D ( 'NONE', #96, #63, #173 ) ;
#136 = ORIENTED_EDGE ( 'NONE', *, *, #186, .F. ) ;
#137 = PRESENTATION_LAYER_ASSIGNMENT (  '', '', ( #108 ) ) ;
#138 = EDGE_CURVE ( 'NONE', #81, #51, #162, .T. ) ;
#139 = AXIS2_PLACEMENT_3D ( 'NONE', #104, #228, #68 ) ;
#140 = SHAPE_DEFINITION_REPRESENTATION ( #56, #211 ) ;
#141 = PRODUCT_CONTEXT ( 'NONE', #47, 'mechanical' ) ;
#142 =( NAMED_UNIT ( * ) SI_UNIT ( $, .STERADIAN. ) SOLID_ANGLE_UNIT ( ) );
#143 = VECTOR ( 'NONE', #177, 1000.000000000000114 ) ;
#144 = CIRCLE ( 'NONE', #15, 14.49999999999999822 ) ;
#145 = DIRECTION ( 'NONE',  ( -0.000000000000000000, -1.000000000000000000, -0.000000000000000000 ) ) ;
#146 =( LENGTH_UNIT ( ) NAMED_UNIT ( * ) SI_UNIT ( .MILLI., .METRE. ) );
#147 = DIRECTION ( 'NONE',  ( 0.000000000000000000, 1.000000000000000000, 0.000000000000000000 ) ) ;
#148 = CARTESIAN_POINT ( 'NONE',  ( -30.48896396067274495, 0.000000000000000000, -28.95704297740572741 ) ) ;
#149 = CARTESIAN_POINT ( 'NONE',  ( -30.48896396067274495, -6.000000000000001776, -14.45704297740572919 ) ) ;
#150 = VECTOR ( 'NONE', #197, 1000.000000000000000 ) ;
#151 = PRESENTATION_LAYER_ASSIGNMENT (  '', '', ( #16 ) ) ;
#152 = ORIENTED_EDGE ( 'NONE', *, *, #27, .T. ) ;
#153 = ORIENTED_EDGE ( 'NONE', *, *, #113, .T. ) ;
#154 =( GEOMETRIC_REPRESENTATION_CONTEXT ( 3 ) GLOBAL_UNCERTAINTY_ASSIGNED_CONTEXT ( ( #111 ) ) GLOBAL_UNIT_ASSIGNED_CONTEXT ( ( #65, #119, #61 ) ) REPRESENTATION_CONTEXT ( 'NONE', 'WORKASPACE' ) );
#155 = DIRECTION ( 'NONE',  ( -0.000000000000000000, -1.000000000000000000, -0.000000000000000000 ) ) ;
#156 = DIRECTION ( 'NONE',  ( 0.000000000000000000, 0.000000000000000000, -1.000000000000000000 ) ) ;
#157 = ORIENTED_EDGE ( 'NONE', *, *, #186, .T. ) ;
#158 = EDGE_CURVE ( 'NONE', #12, #51, #101, .T. ) ;
#159 = ORIENTED_EDGE ( 'NONE', *, *, #73, .F. ) ;
#160 = EDGE_LOOP ( 'NONE', ( #136, #159, #53, #6 ) ) ;
#161 = PRODUCT_DEFINITION_FORMATION_WITH_SPECIFIED_SOURCE ( 'ANY', '', #75, .NOT_KNOWN. ) ;
#162 = CIRCLE ( 'NONE', #103, 18.00000000000000000 ) ;
#163 = EDGE_CURVE ( 'NONE', #213, #30, #91, .T. ) ;
#164 = SURFACE_SIDE_STYLE ('',( #93 ) ) ;
#165 = AXIS2_PLACEMENT_3D ( 'NONE', #167, #20, #182 ) ;
#166 = PRODUCT_DEFINITION_CONTEXT ( 'detailed design', #215, 'design' ) ;
#167 = CARTESIAN_POINT ( 'NONE',  ( -30.48896396067274495, 0.000000000000000000, -28.95704297740572741 ) ) ;
#168 = CONICAL_SURFACE ( 'NONE', #77, 14.49999999999999822, 0.8960553845713425947 ) ;
#169 = CARTESIAN_POINT ( 'NONE',  ( -30.48896396067274495, 0.000000000000000000, -28.95704297740572741 ) ) ;
#170 = SURFACE_STYLE_FILL_AREA ( #210 ) ;
#171 = ADVANCED_FACE ( 'NONE', ( #22 ), #168, .F. ) ;
#172 = DIRECTION ( 'NONE',  ( 0.000000000000000000, 1.000000000000000000, 0.000000000000000000 ) ) ;
#173 = DIRECTION ( 'NONE',  ( 0.000000000000000000, 0.000000000000000000, 1.000000000000000000 ) ) ;
#174 = MECHANICAL_DESIGN_GEOMETRIC_PRESENTATION_REPRESENTATION (  '', ( #108 ), #234 ) ;
#175 = AXIS2_PLACEMENT_3D ( 'NONE', #148, #130, #87 ) ;
#176 = ORIENTED_EDGE ( 'NONE', *, *, #113, .F. ) ;
#177 = DIRECTION ( 'NONE',  ( 9.562884880384106143E-17, 0.6246950475544251757, -0.7808688094430294990 ) ) ;
#178 = ADVANCED_FACE ( 'NONE', ( #70 ), #195, .F. ) ;
#179 = APPLICATION_PROTOCOL_DEFINITION ( 'draft international standard', 'automotive_design', 1998, #47 ) ;
#180 = CARTESIAN_POINT ( 'NONE',  ( -30.48896396067274495, 15.00000000000000000, -46.95704297740572741 ) ) ;
#181 = DIRECTION ( 'NONE',  ( 0.000000000000000000, 0.000000000000000000, -1.000000000000000000 ) ) ;
#182 = DIRECTION ( 'NONE',  ( 0.000000000000000000, -0.000000000000000000, 1.000000000000000000 ) ) ;
#183 = CARTESIAN_POINT ( 'NONE',  ( -30.48896396067274139, 0.000000000000000000, -43.45704297740572741 ) ) ;
#184 = CARTESIAN_POINT ( 'NONE',  ( -30.48896396067274495, 11.99999999999997335, -28.95704297740572741 ) ) ;
#185 = DIRECTION ( 'NONE',  ( 0.000000000000000000, 0.000000000000000000, 1.000000000000000000 ) ) ;
#186 = EDGE_CURVE ( 'NONE', #86, #81, #95, .T. ) ;
#187 = ORIENTED_EDGE ( 'NONE', *, *, #205, .T. ) ;
#188 = SURFACE_STYLE_USAGE ( .BOTH. , #45 ) ;
#189 = EDGE_LOOP ( 'NONE', ( #25, #67 ) ) ;
#190 = ORIENTED_EDGE ( 'NONE', *, *, #163, .F. ) ;
#191 = ORIENTED_EDGE ( 'NONE', *, *, #158, .F. ) ;
#192 = EDGE_LOOP ( 'NONE', ( #32, #157, #225, #191 ) ) ;
#193 = EDGE_CURVE ( 'NONE', #120, #9, #74, .T. ) ;
#194 = CARTESIAN_POINT ( 'NONE',  ( -30.48896396067274495, -6.000000000000001776, -28.95704297740572741 ) ) ;
#195 = CONICAL_SURFACE ( 'NONE', #99, 14.49999999999999822, 0.8960553845713425947 ) ;
#196 = LINE ( 'NONE', #180, #44 ) ;
#197 = DIRECTION ( 'NONE',  ( -0.000000000000000000, 1.000000000000000000, -0.000000000000000000 ) ) ;
#198 = CARTESIAN_POINT ( 'NONE',  ( -30.48896396067274495, 14.79999999999997939, -46.95704297740572741 ) ) ;
#199 = CIRCLE ( 'NONE', #62, 18.00000000000000000 ) ;
#200 = CYLINDRICAL_SURFACE ( 'NONE', #38, 18.00000000000000355 ) ;
#201 = COLOUR_RGB ( '',0.7921568627450980005, 0.8196078431372548767, 0.9333333333333333481 ) ;
#202 = UNCERTAINTY_MEASURE_WITH_UNIT (LENGTH_MEASURE( 1.000000000000000082E-05 ), #232, 'distance_accuracy_value', 'NONE');
#203 = DIRECTION ( 'NONE',  ( 0.000000000000000000, 0.000000000000000000, 1.000000000000000000 ) ) ;
#204 = EDGE_LOOP ( 'NONE', ( #69, #227, #60, #55 ) ) ;
#205 = EDGE_CURVE ( 'NONE', #51, #81, #199, .T. ) ;
#206 = ADVANCED_FACE ( 'NONE', ( #35 ), #220, .F. ) ;
#207 = CARTESIAN_POINT ( 'NONE',  ( -30.48896396067274139, 14.79999999999997939, -10.95704297740572919 ) ) ;
#208 = CARTESIAN_POINT ( 'NONE',  ( -30.48896396067274495, 15.00000000000000000, -28.95704297740572741 ) ) ;
#209 = DIRECTION ( 'NONE',  ( -0.000000000000000000, 1.000000000000000000, -0.000000000000000000 ) ) ;
#210 = FILL_AREA_STYLE ('',( #82 ) ) ;
#211 = ADVANCED_BREP_SHAPE_REPRESENTATION ( 'entretoise-cardan-smaller-thicker', ( #134, #139 ), #133 ) ;
#212 = DIRECTION ( 'NONE',  ( -0.000000000000000000, -1.000000000000000000, -0.000000000000000000 ) ) ;
#213 = VERTEX_POINT ( 'NONE', #94 ) ;
#214 = COLOUR_RGB ( '',0.7921568627450980005, 0.8196078431372548767, 0.9333333333333333481 ) ;
#215 = APPLICATION_CONTEXT ( 'automotive_design' ) ;
#216 = DIRECTION ( 'NONE',  ( 0.000000000000000000, 1.000000000000000000, 0.000000000000000000 ) ) ;
#217 = EDGE_LOOP ( 'NONE', ( #117, #152, #125, #122 ) ) ;
#218 = VECTOR ( 'NONE', #84, 1000.000000000000000 ) ;
#219 = MECHANICAL_DESIGN_GEOMETRIC_PRESENTATION_REPRESENTATION (  '', ( #16 ), #154 ) ;
#220 = CYLINDRICAL_SURFACE ( 'NONE', #11, 14.49999999999999822 ) ;
#221 = LINE ( 'NONE', #149, #150 ) ;
#222 = DIRECTION ( 'NONE',  ( 0.000000000000000000, 0.000000000000000000, 1.000000000000000000 ) ) ;
#223 = AXIS2_PLACEMENT_3D ( 'NONE', #208, #212, #156 ) ;
#224 = CYLINDRICAL_SURFACE ( 'NONE', #135, 14.49999999999999822 ) ;
#225 = ORIENTED_EDGE ( 'NONE', *, *, #205, .F. ) ;
#226 = CARTESIAN_POINT ( 'NONE',  ( -30.48896396067274495, 11.99999999999997335, -14.45704297740572919 ) ) ;
#227 = ORIENTED_EDGE ( 'NONE', *, *, #193, .F. ) ;
#228 = DIRECTION ( 'NONE',  ( 0.000000000000000000, 0.000000000000000000, 1.000000000000000000 ) ) ;
#229 = EDGE_LOOP ( 'NONE', ( #64, #187, #13, #34 ) ) ;
#230 = SURFACE_STYLE_USAGE ( .BOTH. , #164 ) ;
#231 = EDGE_CURVE ( 'NONE', #81, #213, #196, .T. ) ;
#232 =( LENGTH_UNIT ( ) NAMED_UNIT ( * ) SI_UNIT ( .MILLI., .METRE. ) );
#233 = FACE_OUTER_BOUND ( 'NONE', #217, .T. ) ;
#234 =( GEOMETRIC_REPRESENTATION_CONTEXT ( 3 ) GLOBAL_UNCERTAINTY_ASSIGNED_CONTEXT ( ( #97 ) ) GLOBAL_UNIT_ASSIGNED_CONTEXT ( ( #146, #71, #142 ) ) REPRESENTATION_CONTEXT ( 'NONE', 'WORKASPACE' ) );
ENDSEC;
END-ISO-10303-21;
