ISO-10303-21;
HEADER;
FILE_DESCRIPTION (( 'STEP AP203' ),
    '1' );
FILE_NAME ('rod_small.STEP',
    '2022-11-19T17:38:38',
    ( '' ),
    ( '' ),
    'SwSTEP 2.0',
    'SolidWorks 2021',
    '' );
FILE_SCHEMA (( 'CONFIG_CONTROL_DESIGN' ));
ENDSEC;

DATA;
#1 = EDGE_CURVE ( 'NONE', #23, #105, #79, .T. ) ;
#2 = EDGE_LOOP ( 'NONE', ( #162, #129, #246, #178 ) ) ;
#3 = AXIS2_PLACEMENT_3D ( 'NONE', #63, #66, #83 ) ;
#4 = CARTESIAN_POINT ( 'NONE',  ( 0.000000000000000000, -2.000000000000000888, 4.500000000000000000 ) ) ;
#5 = COORDINATED_UNIVERSAL_TIME_OFFSET ( 8, 0, .BEHIND. ) ;
#6 = DIRECTION ( 'NONE',  ( 0.000000000000000000, -1.000000000000000000, 0.000000000000000000 ) ) ;
#7 = VERTEX_POINT ( 'NONE', #69 ) ;
#8 = LINE ( 'NONE', #92, #10 ) ;
#9 = CARTESIAN_POINT ( 'NONE',  ( 0.000000000000000000, -2.500000000000000000, 4.500000000000000000 ) ) ;
#10 = VECTOR ( 'NONE', #255, 1000.000000000000000 ) ;
#11 = DIRECTION ( 'NONE',  ( 0.000000000000000000, -1.000000000000000000, -1.204669080539449344E-16 ) ) ;
#12 = DATE_AND_TIME ( #209, #249 ) ;
#13 = APPROVAL_DATE_TIME ( #24, #64 ) ;
#14 = CARTESIAN_POINT ( 'NONE',  ( 0.000000000000000000, -3.011672701348623976E-16, 2.500000000000000000 ) ) ;
#15 = DATE_AND_TIME ( #171, #153 ) ;
#16 = CARTESIAN_POINT ( 'NONE',  ( 2.449293598294706907E-16, 2.000000000000000000, 2.409338161078898687E-16 ) ) ;
#17 = AXIS2_PLACEMENT_3D ( 'NONE', #76, #151, #168 ) ;
#18 = CC_DESIGN_PERSON_AND_ORGANIZATION_ASSIGNMENT ( #207, #253, ( #247 ) ) ;
#19 = FACE_OUTER_BOUND ( 'NONE', #73, .T. ) ;
#20 = PLANE ( 'NONE',  #174 ) ;
#21 = APPROVAL_PERSON_ORGANIZATION ( #206, #112, #155 ) ;
#22 = CC_DESIGN_SECURITY_CLASSIFICATION ( #165, ( #139 ) ) ;
#23 = VERTEX_POINT ( 'NONE', #144 ) ;
#24 = DATE_AND_TIME ( #195, #59 ) ;
#25 = ORIENTED_EDGE ( 'NONE', *, *, #201, .T. ) ;
#26 = CARTESIAN_POINT ( 'NONE',  ( 0.000000000000000000, -5.421010862427522170E-16, 4.500000000000000000 ) ) ;
#27 = EDGE_CURVE ( 'NONE', #28, #105, #182, .T. ) ;
#28 = VERTEX_POINT ( 'NONE', #167 ) ;
#29 = APPROVAL_ROLE ( '' ) ;
#30 = PLANE ( 'NONE',  #218 ) ;
#31 = APPROVAL_PERSON_ORGANIZATION ( #109, #64, #142 ) ;
#32 = CARTESIAN_POINT ( 'NONE',  ( 0.000000000000000000, 2.499999999999999556, 2.500000000000000444 ) ) ;
#33 = MANIFOLD_SOLID_BREP ( 'Revolve1', #136 ) ;
#34 = PERSON_AND_ORGANIZATION_ROLE ( 'design_supplier' ) ;
#35 = ADVANCED_FACE ( 'NONE', ( #217 ), #128, .T. ) ;
#36 = CIRCLE ( 'NONE', #88, 2.000000000000000000 ) ;
#37 = APPROVAL_DATE_TIME ( #228, #123 ) ;
#38 = ORIENTED_EDGE ( 'NONE', *, *, #27, .T. ) ;
#39 = DIRECTION ( 'NONE',  ( 0.000000000000000000, -1.000000000000000000, 0.000000000000000000 ) ) ;
#40 = EDGE_CURVE ( 'NONE', #245, #28, #130, .T. ) ;
#41 = DIRECTION ( 'NONE',  ( 0.000000000000000000, -1.000000000000000000, -2.168404344971008375E-16 ) ) ;
#42 = APPLICATION_CONTEXT ( 'configuration controlled 3d designs of mechanical parts and assemblies' ) ;
#43 = LINE ( 'NONE', #4, #101 ) ;
#44 = APPLICATION_CONTEXT ( 'configuration controlled 3d designs of mechanical parts and assemblies' ) ;
#45 = EDGE_LOOP ( 'NONE', ( #163, #93 ) ) ;
#46 = ORIENTED_EDGE ( 'NONE', *, *, #72, .F. ) ;
#47 = EDGE_CURVE ( 'NONE', #222, #7, #36, .T. ) ;
#48 = CIRCLE ( 'NONE', #169, 2.499999999999999556 ) ;
#49 = ORIENTED_EDGE ( 'NONE', *, *, #72, .T. ) ;
#50 = APPROVAL_STATUS ( 'not_yet_approved' ) ;
#51 = DIRECTION ( 'NONE',  ( 0.000000000000000000, -1.000000000000000000, 0.000000000000000000 ) ) ;
#52 = CARTESIAN_POINT ( 'NONE',  ( 0.000000000000000000, -5.421010862427522170E-16, 4.500000000000000000 ) ) ;
#53 = CYLINDRICAL_SURFACE ( 'NONE', #96, 2.499999999999999556 ) ;
#54 = CIRCLE ( 'NONE', #158, 2.000000000000000444 ) ;
#55 = DESIGN_CONTEXT ( 'detailed design', #44, 'design' ) ;
#56 = EDGE_CURVE ( 'NONE', #222, #237, #8, .T. ) ;
#57 = DATE_TIME_ROLE ( 'creation_date' ) ;
#58 = DIRECTION ( 'NONE',  ( -0.000000000000000000, -1.204669080539449344E-16, 1.000000000000000000 ) ) ;
#59 = LOCAL_TIME ( 9, 38, 38.00000000000000000, #5 ) ;
#60 = DATE_TIME_ROLE ( 'classification_date' ) ;
#61 = CYLINDRICAL_SURFACE ( 'NONE', #244, 2.000000000000000444 ) ;
#62 = CARTESIAN_POINT ( 'NONE',  ( 0.000000000000000000, -2.000000000000000888, 2.499999999999999112 ) ) ;
#63 = CARTESIAN_POINT ( 'NONE',  ( 0.000000000000000000, 0.000000000000000000, 0.000000000000000000 ) ) ;
#64 = APPROVAL ( #50, 'UNSPECIFIED' ) ;
#65 = DIRECTION ( 'NONE',  ( -0.000000000000000000, -1.204669080539449344E-16, 1.000000000000000000 ) ) ;
#66 = DIRECTION ( 'NONE',  ( 0.000000000000000000, 0.000000000000000000, 1.000000000000000000 ) ) ;
#67 = VECTOR ( 'NONE', #126, 1000.000000000000000 ) ;
#68 = CC_DESIGN_PERSON_AND_ORGANIZATION_ASSIGNMENT ( #84, #252, ( #139 ) ) ;
#69 = CARTESIAN_POINT ( 'NONE',  ( 0.000000000000000000, -2.000000000000000000, -2.409338161078898687E-16 ) ) ;
#70 = DIRECTION ( 'NONE',  ( -0.000000000000000000, -1.204669080539449344E-16, 1.000000000000000000 ) ) ;
#71 = AXIS2_PLACEMENT_3D ( 'NONE', #14, #98, #100 ) ;
#72 = EDGE_CURVE ( 'NONE', #196, #237, #141, .T. ) ;
#73 = EDGE_LOOP ( 'NONE', ( #164, #216, #46, #215 ) ) ;
#74 = ORIENTED_EDGE ( 'NONE', *, *, #27, .F. ) ;
#75 = ADVANCED_FACE ( 'NONE', ( #150 ), #53, .T. ) ;
#76 = CARTESIAN_POINT ( 'NONE',  ( 0.000000000000000000, -3.011672701348623483E-16, 2.499999999999999556 ) ) ;
#77 = PRODUCT_DEFINITION_SHAPE ( 'NONE', 'NONE',  #247 ) ;
#78 = PERSON_AND_ORGANIZATION ( #161, #148 ) ;
#79 = CIRCLE ( 'NONE', #214, 2.499999999999999556 ) ;
#80 = COORDINATED_UNIVERSAL_TIME_OFFSET ( 8, 0, .BEHIND. ) ;
#81 = CARTESIAN_POINT ( 'NONE',  ( 0.000000000000000000, -5.421010862427522170E-16, 4.500000000000000000 ) ) ;
#82 = APPROVAL_STATUS ( 'not_yet_approved' ) ;
#83 = DIRECTION ( 'NONE',  ( 1.000000000000000000, 0.000000000000000000, 0.000000000000000000 ) ) ;
#84 = PERSON_AND_ORGANIZATION ( #161, #148 ) ;
#85 =( NAMED_UNIT ( * ) SI_UNIT ( $, .STERADIAN. ) SOLID_ANGLE_UNIT ( ) );
#86 = CARTESIAN_POINT ( 'NONE',  ( 0.000000000000000000, -5.421010862427522170E-16, 4.500000000000000000 ) ) ;
#87 = CC_DESIGN_PERSON_AND_ORGANIZATION_ASSIGNMENT ( #240, #235, ( #113 ) ) ;
#88 = AXIS2_PLACEMENT_3D ( 'NONE', #143, #243, #181 ) ;
#89 = DIRECTION ( 'NONE',  ( -0.000000000000000000, -1.204669080539449344E-16, 1.000000000000000000 ) ) ;
#90 = EDGE_LOOP ( 'NONE', ( #145, #242 ) ) ;
#91 = CC_DESIGN_PERSON_AND_ORGANIZATION_ASSIGNMENT ( #152, #138, ( #165 ) ) ;
#92 = CARTESIAN_POINT ( 'NONE',  ( 2.449293598294706907E-16, 2.000000000000000000, 4.500000000000000000 ) ) ;
#93 = ORIENTED_EDGE ( 'NONE', *, *, #1, .T. ) ;
#94 = CARTESIAN_POINT ( 'NONE',  ( 0.000000000000000000, -3.011672701348623976E-16, 2.500000000000000000 ) ) ;
#95 = DIRECTION ( 'NONE',  ( -0.000000000000000000, -1.204669080539449344E-16, 1.000000000000000000 ) ) ;
#96 = AXIS2_PLACEMENT_3D ( 'NONE', #97, #187, #170 ) ;
#97 = CARTESIAN_POINT ( 'NONE',  ( 0.000000000000000000, -5.421010862427522170E-16, 4.500000000000000000 ) ) ;
#98 = DIRECTION ( 'NONE',  ( -0.000000000000000000, -1.204669080539449344E-16, 1.000000000000000000 ) ) ;
#99 = EDGE_CURVE ( 'NONE', #105, #23, #48, .T. ) ;
#100 = DIRECTION ( 'NONE',  ( 0.000000000000000000, -1.000000000000000000, -1.734723475976807341E-16 ) ) ;
#101 = VECTOR ( 'NONE', #102, 1000.000000000000000 ) ;
#102 = DIRECTION ( 'NONE',  ( -0.000000000000000000, -1.204669080539449344E-16, 1.000000000000000000 ) ) ;
#103 = LOCAL_TIME ( 9, 38, 38.00000000000000000, #157 ) ;
#104 = DIRECTION ( 'NONE',  ( -0.000000000000000000, -1.204669080539449344E-16, 1.000000000000000000 ) ) ;
#105 = VERTEX_POINT ( 'NONE', #223 ) ;
#106 = AXIS2_PLACEMENT_3D ( 'NONE', #200, #212, #156 ) ;
#107 = EDGE_LOOP ( 'NONE', ( #49, #25 ) ) ;
#108 = DIRECTION ( 'NONE',  ( -0.000000000000000000, -1.204669080539449344E-16, 1.000000000000000000 ) ) ;
#109 = PERSON_AND_ORGANIZATION ( #161, #148 ) ;
#110 = ORIENTED_EDGE ( 'NONE', *, *, #184, .T. ) ;
#111 = DIRECTION ( 'NONE',  ( -0.000000000000000000, -1.204669080539449344E-16, 1.000000000000000000 ) ) ;
#112 = APPROVAL ( #82, 'UNSPECIFIED' ) ;
#113 = PRODUCT ( 'rod_small', 'rod_small', '', ( #238 ) ) ;
#114 =( GEOMETRIC_REPRESENTATION_CONTEXT ( 3 ) GLOBAL_UNCERTAINTY_ASSIGNED_CONTEXT ( ( #179 ) ) GLOBAL_UNIT_ASSIGNED_CONTEXT ( ( #190, #125, #85 ) ) REPRESENTATION_CONTEXT ( 'NONE', 'WORKASPACE' ) );
#115 = PERSON_AND_ORGANIZATION ( #161, #148 ) ;
#116 = PRODUCT_RELATED_PRODUCT_CATEGORY ( 'detail', '', ( #113 ) ) ;
#117 = DIRECTION ( 'NONE',  ( 0.000000000000000000, -1.204669080539449344E-16, 1.000000000000000000 ) ) ;
#118 = COORDINATED_UNIVERSAL_TIME_OFFSET ( 8, 0, .BEHIND. ) ;
#119 = CARTESIAN_POINT ( 'NONE',  ( 0.000000000000000000, -9.629649721936179265E-32, 0.000000000000000000 ) ) ;
#120 = ADVANCED_BREP_SHAPE_REPRESENTATION ( 'rod_small', ( #33, #3 ), #114 ) ;
#121 = CARTESIAN_POINT ( 'NONE',  ( 0.000000000000000000, -3.011672701348623483E-16, 2.499999999999999556 ) ) ;
#122 = CARTESIAN_POINT ( 'NONE',  ( 0.000000000000000000, -5.421010862427522170E-16, 4.500000000000000000 ) ) ;
#123 = APPROVAL ( #250, 'UNSPECIFIED' ) ;
#124 = AXIS2_PLACEMENT_3D ( 'NONE', #52, #108, #6 ) ;
#125 =( NAMED_UNIT ( * ) PLANE_ANGLE_UNIT ( ) SI_UNIT ( $, .RADIAN. ) );
#126 = DIRECTION ( 'NONE',  ( -0.000000000000000000, -1.204669080539449344E-16, 1.000000000000000000 ) ) ;
#127 = ORIENTED_EDGE ( 'NONE', *, *, #40, .T. ) ;
#128 = CYLINDRICAL_SURFACE ( 'NONE', #124, 2.000000000000000444 ) ;
#129 = ORIENTED_EDGE ( 'NONE', *, *, #47, .T. ) ;
#130 = CIRCLE ( 'NONE', #185, 2.499999999999999556 ) ;
#131 = EDGE_CURVE ( 'NONE', #245, #23, #149, .T. ) ;
#132 = FACE_OUTER_BOUND ( 'NONE', #197, .T. ) ;
#133 = CARTESIAN_POINT ( 'NONE',  ( 0.000000000000000000, -5.421010862427522170E-16, 4.500000000000000000 ) ) ;
#134 = CC_DESIGN_PERSON_AND_ORGANIZATION_ASSIGNMENT ( #78, #34, ( #139 ) ) ;
#135 = CALENDAR_DATE ( 2022, 19, 11 ) ;
#136 = CLOSED_SHELL ( 'NONE', ( #204, #234, #213, #75, #147, #35, #188 ) ) ;
#137 = SHAPE_DEFINITION_REPRESENTATION ( #77, #120 ) ;
#138 = PERSON_AND_ORGANIZATION_ROLE ( 'classification_officer' ) ;
#139 = PRODUCT_DEFINITION_FORMATION_WITH_SPECIFIED_SOURCE ( 'ANY', '', #113, .NOT_KNOWN. ) ;
#140 = CC_DESIGN_APPROVAL ( #112, ( #139 ) ) ;
#141 = CIRCLE ( 'NONE', #17, 2.000000000000000444 ) ;
#142 = APPROVAL_ROLE ( '' ) ;
#143 = CARTESIAN_POINT ( 'NONE',  ( 0.000000000000000000, -9.629649721936179265E-32, 0.000000000000000000 ) ) ;
#144 = CARTESIAN_POINT ( 'NONE',  ( 3.061616997868382648E-16, 2.499999999999999112, 4.500000000000000000 ) ) ;
#145 = ORIENTED_EDGE ( 'NONE', *, *, #160, .F. ) ;
#146 = EDGE_LOOP ( 'NONE', ( #110, #183, #191, #74 ) ) ;
#147 = ADVANCED_FACE ( 'NONE', ( #132, #226 ), #30, .F. ) ;
#148 = ORGANIZATION ( 'UNSPECIFIED', 'UNSPECIFIED', '' ) ;
#149 = LINE ( 'NONE', #202, #210 ) ;
#150 = FACE_OUTER_BOUND ( 'NONE', #221, .T. ) ;
#151 = DIRECTION ( 'NONE',  ( -0.000000000000000000, -1.204669080539449344E-16, 1.000000000000000000 ) ) ;
#152 = PERSON_AND_ORGANIZATION ( #161, #148 ) ;
#153 = LOCAL_TIME ( 9, 38, 38.00000000000000000, #80 ) ;
#154 = DIRECTION ( 'NONE',  ( -0.000000000000000000, -1.204669080539449344E-16, 1.000000000000000000 ) ) ;
#155 = APPROVAL_ROLE ( '' ) ;
#156 = DIRECTION ( 'NONE',  ( 0.000000000000000000, -1.000000000000000000, -1.204669080539449344E-16 ) ) ;
#157 = COORDINATED_UNIVERSAL_TIME_OFFSET ( 8, 0, .BEHIND. ) ;
#158 = AXIS2_PLACEMENT_3D ( 'NONE', #121, #65, #41 ) ;
#159 = LOCAL_TIME ( 9, 38, 38.00000000000000000, #173 ) ;
#160 = EDGE_CURVE ( 'NONE', #7, #222, #236, .T. ) ;
#161 = PERSON ( 'UNSPECIFIED', 'UNSPECIFIED', 'UNSPECIFIED', ('UNSPECIFIED'), ('UNSPECIFIED'), ('UNSPECIFIED') ) ;
#162 = ORIENTED_EDGE ( 'NONE', *, *, #56, .F. ) ;
#163 = ORIENTED_EDGE ( 'NONE', *, *, #99, .T. ) ;
#164 = ORIENTED_EDGE ( 'NONE', *, *, #160, .T. ) ;
#165 = SECURITY_CLASSIFICATION ( '', '', #230 ) ;
#166 = ORIENTED_EDGE ( 'NONE', *, *, #40, .F. ) ;
#167 = CARTESIAN_POINT ( 'NONE',  ( 0.000000000000000000, -2.500000000000000000, 2.499999999999999556 ) ) ;
#168 = DIRECTION ( 'NONE',  ( 0.000000000000000000, -1.000000000000000000, -2.168404344971008375E-16 ) ) ;
#169 = AXIS2_PLACEMENT_3D ( 'NONE', #133, #58, #248 ) ;
#170 = DIRECTION ( 'NONE',  ( 0.000000000000000000, -1.000000000000000000, 0.000000000000000000 ) ) ;
#171 = CALENDAR_DATE ( 2022, 19, 11 ) ;
#172 = FACE_OUTER_BOUND ( 'NONE', #90, .T. ) ;
#173 = COORDINATED_UNIVERSAL_TIME_OFFSET ( 8, 0, .BEHIND. ) ;
#174 = AXIS2_PLACEMENT_3D ( 'NONE', #122, #192, #177 ) ;
#175 = CARTESIAN_POINT ( 'NONE',  ( 2.449293598294706907E-16, 2.000000000000000000, 2.500000000000000000 ) ) ;
#176 = CYLINDRICAL_SURFACE ( 'NONE', #224, 2.499999999999999556 ) ;
#177 = DIRECTION ( 'NONE',  ( 0.000000000000000000, 1.000000000000000000, 1.204669080539449344E-16 ) ) ;
#178 = ORIENTED_EDGE ( 'NONE', *, *, #201, .F. ) ;
#179 = UNCERTAINTY_MEASURE_WITH_UNIT (LENGTH_MEASURE( 1.000000000000000082E-05 ), #190, 'distance_accuracy_value', 'NONE');
#180 = ORIENTED_EDGE ( 'NONE', *, *, #131, .F. ) ;
#181 = DIRECTION ( 'NONE',  ( 0.000000000000000000, -1.000000000000000000, -1.204669080539449344E-16 ) ) ;
#182 = LINE ( 'NONE', #9, #67 ) ;
#183 = ORIENTED_EDGE ( 'NONE', *, *, #131, .T. ) ;
#184 = EDGE_CURVE ( 'NONE', #28, #245, #199, .T. ) ;
#185 = AXIS2_PLACEMENT_3D ( 'NONE', #94, #89, #239 ) ;
#186 = APPROVAL_DATE_TIME ( #15, #112 ) ;
#187 = DIRECTION ( 'NONE',  ( -0.000000000000000000, -1.204669080539449344E-16, 1.000000000000000000 ) ) ;
#188 = ADVANCED_FACE ( 'NONE', ( #172 ), #205, .F. ) ;
#189 = DATE_AND_TIME ( #135, #103 ) ;
#190 =( LENGTH_UNIT ( ) NAMED_UNIT ( * ) SI_UNIT ( .MILLI., .METRE. ) );
#191 = ORIENTED_EDGE ( 'NONE', *, *, #99, .F. ) ;
#192 = DIRECTION ( 'NONE',  ( 0.000000000000000000, 1.204669080539449344E-16, -1.000000000000000000 ) ) ;
#193 = ORIENTED_EDGE ( 'NONE', *, *, #184, .F. ) ;
#194 = FACE_OUTER_BOUND ( 'NONE', #146, .T. ) ;
#195 = CALENDAR_DATE ( 2022, 19, 11 ) ;
#196 = VERTEX_POINT ( 'NONE', #62 ) ;
#197 = EDGE_LOOP ( 'NONE', ( #193, #166 ) ) ;
#198 = ORIENTED_EDGE ( 'NONE', *, *, #1, .F. ) ;
#199 = CIRCLE ( 'NONE', #71, 2.499999999999999556 ) ;
#200 = CARTESIAN_POINT ( 'NONE',  ( 0.000000000000000000, 2.000000000000000000, 1.204669080539449344E-16 ) ) ;
#201 = EDGE_CURVE ( 'NONE', #237, #196, #54, .T. ) ;
#202 = CARTESIAN_POINT ( 'NONE',  ( 3.061616997868382648E-16, 2.499999999999999112, 4.500000000000000000 ) ) ;
#203 = CALENDAR_DATE ( 2022, 19, 11 ) ;
#204 = ADVANCED_FACE ( 'NONE', ( #19 ), #61, .T. ) ;
#205 = PLANE ( 'NONE',  #106 ) ;
#206 = PERSON_AND_ORGANIZATION ( #161, #148 ) ;
#207 = PERSON_AND_ORGANIZATION ( #161, #148 ) ;
#208 = CARTESIAN_POINT ( 'NONE',  ( 3.061616997868382648E-16, 2.499999999999999112, 2.500000000000000444 ) ) ;
#209 = CALENDAR_DATE ( 2022, 19, 11 ) ;
#210 = VECTOR ( 'NONE', #111, 1000.000000000000000 ) ;
#211 = FACE_OUTER_BOUND ( 'NONE', #45, .T. ) ;
#212 = DIRECTION ( 'NONE',  ( 0.000000000000000000, -1.204669080539449344E-16, 1.000000000000000000 ) ) ;
#213 = ADVANCED_FACE ( 'NONE', ( #211 ), #20, .F. ) ;
#214 = AXIS2_PLACEMENT_3D ( 'NONE', #26, #70, #51 ) ;
#215 = ORIENTED_EDGE ( 'NONE', *, *, #241, .F. ) ;
#216 = ORIENTED_EDGE ( 'NONE', *, *, #56, .T. ) ;
#217 = FACE_OUTER_BOUND ( 'NONE', #2, .T. ) ;
#218 = AXIS2_PLACEMENT_3D ( 'NONE', #32, #117, #11 ) ;
#219 = CC_DESIGN_DATE_AND_TIME_ASSIGNMENT ( #12, #57, ( #247 ) ) ;
#220 = APPLICATION_PROTOCOL_DEFINITION ( 'international standard', 'config_control_design', 1994, #44 ) ;
#221 = EDGE_LOOP ( 'NONE', ( #180, #127, #38, #198 ) ) ;
#222 = VERTEX_POINT ( 'NONE', #16 ) ;
#223 = CARTESIAN_POINT ( 'NONE',  ( 0.000000000000000000, -2.500000000000000000, 4.500000000000000000 ) ) ;
#224 = AXIS2_PLACEMENT_3D ( 'NONE', #81, #154, #231 ) ;
#225 = CC_DESIGN_APPROVAL ( #123, ( #165 ) ) ;
#226 = FACE_BOUND ( 'NONE', #107, .T. ) ;
#227 = CC_DESIGN_APPROVAL ( #64, ( #247 ) ) ;
#228 = DATE_AND_TIME ( #203, #159 ) ;
#229 = DIRECTION ( 'NONE',  ( 0.000000000000000000, -1.000000000000000000, -1.204669080539449344E-16 ) ) ;
#230 = SECURITY_CLASSIFICATION_LEVEL ( 'unclassified' ) ;
#231 = DIRECTION ( 'NONE',  ( 0.000000000000000000, -1.000000000000000000, 0.000000000000000000 ) ) ;
#232 = AXIS2_PLACEMENT_3D ( 'NONE', #119, #95, #229 ) ;
#233 = APPLICATION_PROTOCOL_DEFINITION ( 'international standard', 'config_control_design', 1994, #42 ) ;
#234 = ADVANCED_FACE ( 'NONE', ( #194 ), #176, .T. ) ;
#235 = PERSON_AND_ORGANIZATION_ROLE ( 'design_owner' ) ;
#236 = CIRCLE ( 'NONE', #232, 2.000000000000000000 ) ;
#237 = VERTEX_POINT ( 'NONE', #175 ) ;
#238 = MECHANICAL_CONTEXT ( 'NONE', #42, 'mechanical' ) ;
#239 = DIRECTION ( 'NONE',  ( 0.000000000000000000, -1.000000000000000000, -1.734723475976807341E-16 ) ) ;
#240 = PERSON_AND_ORGANIZATION ( #161, #148 ) ;
#241 = EDGE_CURVE ( 'NONE', #7, #196, #43, .T. ) ;
#242 = ORIENTED_EDGE ( 'NONE', *, *, #47, .F. ) ;
#243 = DIRECTION ( 'NONE',  ( -0.000000000000000000, -1.204669080539449344E-16, 1.000000000000000000 ) ) ;
#244 = AXIS2_PLACEMENT_3D ( 'NONE', #86, #104, #39 ) ;
#245 = VERTEX_POINT ( 'NONE', #208 ) ;
#246 = ORIENTED_EDGE ( 'NONE', *, *, #241, .T. ) ;
#247 = PRODUCT_DEFINITION ( 'UNKNOWN', '', #139, #55 ) ;
#248 = DIRECTION ( 'NONE',  ( 0.000000000000000000, -1.000000000000000000, 0.000000000000000000 ) ) ;
#249 = LOCAL_TIME ( 9, 38, 38.00000000000000000, #118 ) ;
#250 = APPROVAL_STATUS ( 'not_yet_approved' ) ;
#251 = CC_DESIGN_DATE_AND_TIME_ASSIGNMENT ( #189, #60, ( #165 ) ) ;
#252 = PERSON_AND_ORGANIZATION_ROLE ( 'creator' ) ;
#253 = PERSON_AND_ORGANIZATION_ROLE ( 'creator' ) ;
#254 = APPROVAL_PERSON_ORGANIZATION ( #115, #123, #29 ) ;
#255 = DIRECTION ( 'NONE',  ( -0.000000000000000000, -1.204669080539449344E-16, 1.000000000000000000 ) ) ;
ENDSEC;
END-ISO-10303-21;
