ISO-10303-21;
HEADER;
/* Generated by software containing ST-Developer
 * from STEP Tools, Inc. (www.steptools.com) 
 */

FILE_DESCRIPTION(
/* description */ (''),
/* implementation_level */ '2;1');

FILE_NAME(
/* name */ 'Guide gauche(Symtrie miroir).step',
/* time_stamp */ '2022-11-26T20:45:25+01:00',
/* author */ (''),
/* organization */ (''),
/* preprocessor_version */ 'ST-DEVELOPER v19.2',
/* originating_system */ 'Autodesk Translation Framework v11.17.0.187',

/* authorisation */ '');

FILE_SCHEMA (('AUTOMOTIVE_DESIGN { 1 0 10303 214 3 1 1 }'));
ENDSEC;

DATA;
#10=MECHANICAL_DESIGN_GEOMETRIC_PRESENTATION_REPRESENTATION('',(#13),#618);
#11=SHAPE_REPRESENTATION_RELATIONSHIP('SRR','None',#625,#12);
#12=ADVANCED_BREP_SHAPE_REPRESENTATION('',(#14),#617);
#13=STYLED_ITEM('',(#634),#14);
#14=MANIFOLD_SOLID_BREP('Corps1',#369);
#15=CYLINDRICAL_SURFACE('',#389,2.5000000372529);
#16=CYLINDRICAL_SURFACE('',#394,2.5);
#17=CYLINDRICAL_SURFACE('',#406,2.1);
#18=CYLINDRICAL_SURFACE('',#408,2.1);
#19=CYLINDRICAL_SURFACE('',#410,2.117);
#20=CYLINDRICAL_SURFACE('',#411,2.117);
#21=FACE_BOUND('',#65,.T.);
#22=FACE_BOUND('',#66,.T.);
#23=FACE_BOUND('',#71,.T.);
#24=FACE_BOUND('',#74,.T.);
#25=FACE_BOUND('',#76,.T.);
#26=FACE_BOUND('',#77,.T.);
#27=FACE_BOUND('',#81,.T.);
#28=FACE_BOUND('',#82,.T.);
#29=FACE_BOUND('',#91,.T.);
#30=FACE_BOUND('',#92,.T.);
#31=CIRCLE('',#385,2.117);
#32=CIRCLE('',#386,2.117);
#33=CIRCLE('',#390,2.50000009964763);
#34=CIRCLE('',#391,2.5000000372529);
#35=CIRCLE('',#393,2.11700005283585);
#36=CIRCLE('',#395,2.50000006239472);
#37=CIRCLE('',#396,2.5);
#38=CIRCLE('',#398,2.11700005283585);
#39=CIRCLE('',#400,2.1);
#40=CIRCLE('',#401,2.1);
#41=CIRCLE('',#407,2.1);
#42=CIRCLE('',#409,2.1);
#43=FACE_OUTER_BOUND('',#63,.T.);
#44=FACE_OUTER_BOUND('',#64,.T.);
#45=FACE_OUTER_BOUND('',#67,.T.);
#46=FACE_OUTER_BOUND('',#68,.T.);
#47=FACE_OUTER_BOUND('',#69,.T.);
#48=FACE_OUTER_BOUND('',#70,.T.);
#49=FACE_OUTER_BOUND('',#72,.T.);
#50=FACE_OUTER_BOUND('',#73,.T.);
#51=FACE_OUTER_BOUND('',#75,.T.);
#52=FACE_OUTER_BOUND('',#78,.T.);
#53=FACE_OUTER_BOUND('',#79,.T.);
#54=FACE_OUTER_BOUND('',#80,.T.);
#55=FACE_OUTER_BOUND('',#83,.T.);
#56=FACE_OUTER_BOUND('',#84,.T.);
#57=FACE_OUTER_BOUND('',#85,.T.);
#58=FACE_OUTER_BOUND('',#86,.T.);
#59=FACE_OUTER_BOUND('',#87,.T.);
#60=FACE_OUTER_BOUND('',#88,.T.);
#61=FACE_OUTER_BOUND('',#89,.T.);
#62=FACE_OUTER_BOUND('',#90,.T.);
#63=EDGE_LOOP('',(#241,#242,#243,#244,#245,#246));
#64=EDGE_LOOP('',(#247,#248,#249,#250,#251,#252));
#65=EDGE_LOOP('',(#253));
#66=EDGE_LOOP('',(#254));
#67=EDGE_LOOP('',(#255,#256,#257,#258,#259,#260));
#68=EDGE_LOOP('',(#261,#262,#263,#264));
#69=EDGE_LOOP('',(#265,#266,#267,#268));
#70=EDGE_LOOP('',(#269));
#71=EDGE_LOOP('',(#270));
#72=EDGE_LOOP('',(#271,#272,#273,#274));
#73=EDGE_LOOP('',(#275));
#74=EDGE_LOOP('',(#276));
#75=EDGE_LOOP('',(#277,#278,#279,#280,#281));
#76=EDGE_LOOP('',(#282));
#77=EDGE_LOOP('',(#283));
#78=EDGE_LOOP('',(#284,#285,#286));
#79=EDGE_LOOP('',(#287,#288,#289,#290,#291));
#80=EDGE_LOOP('',(#292,#293,#294,#295,#296,#297,#298,#299));
#81=EDGE_LOOP('',(#300));
#82=EDGE_LOOP('',(#301));
#83=EDGE_LOOP('',(#302,#303,#304));
#84=EDGE_LOOP('',(#305,#306,#307,#308));
#85=EDGE_LOOP('',(#309,#310,#311,#312));
#86=EDGE_LOOP('',(#313,#314,#315,#316));
#87=EDGE_LOOP('',(#317,#318,#319,#320));
#88=EDGE_LOOP('',(#321,#322,#323,#324));
#89=EDGE_LOOP('',(#325,#326,#327,#328));
#90=EDGE_LOOP('',(#329,#330,#331,#332));
#91=EDGE_LOOP('',(#333));
#92=EDGE_LOOP('',(#334));
#93=LINE('',#520,#128);
#94=LINE('',#522,#129);
#95=LINE('',#524,#130);
#96=LINE('',#526,#131);
#97=LINE('',#528,#132);
#98=LINE('',#529,#133);
#99=LINE('',#532,#134);
#100=LINE('',#534,#135);
#101=LINE('',#536,#136);
#102=LINE('',#538,#137);
#103=LINE('',#539,#138);
#104=LINE('',#546,#139);
#105=LINE('',#548,#140);
#106=LINE('',#550,#141);
#107=LINE('',#551,#142);
#108=LINE('',#554,#143);
#109=LINE('',#555,#144);
#110=LINE('',#560,#145);
#111=LINE('',#569,#146);
#112=LINE('',#576,#147);
#113=LINE('',#578,#148);
#114=LINE('',#579,#149);
#115=LINE('',#586,#150);
#116=LINE('',#587,#151);
#117=LINE('',#589,#152);
#118=LINE('',#591,#153);
#119=LINE('',#592,#154);
#120=LINE('',#595,#155);
#121=LINE('',#596,#156);
#122=LINE('',#597,#157);
#123=LINE('',#601,#158);
#124=LINE('',#605,#159);
#125=LINE('',#608,#160);
#126=LINE('',#610,#161);
#127=LINE('',#613,#162);
#128=VECTOR('',#419,10.);
#129=VECTOR('',#420,10.);
#130=VECTOR('',#421,10.);
#131=VECTOR('',#422,10.);
#132=VECTOR('',#423,10.);
#133=VECTOR('',#424,10.);
#134=VECTOR('',#427,10.);
#135=VECTOR('',#428,10.);
#136=VECTOR('',#429,10.);
#137=VECTOR('',#430,10.);
#138=VECTOR('',#431,10.);
#139=VECTOR('',#438,10.);
#140=VECTOR('',#439,10.);
#141=VECTOR('',#440,10.);
#142=VECTOR('',#441,10.);
#143=VECTOR('',#444,10.);
#144=VECTOR('',#445,10.);
#145=VECTOR('',#450,2.5000000372529);
#146=VECTOR('',#461,2.5);
#147=VECTOR('',#470,10.);
#148=VECTOR('',#471,10.);
#149=VECTOR('',#472,10.);
#150=VECTOR('',#479,10.);
#151=VECTOR('',#480,10.);
#152=VECTOR('',#483,10.);
#153=VECTOR('',#484,10.);
#154=VECTOR('',#485,10.);
#155=VECTOR('',#488,10.);
#156=VECTOR('',#489,10.);
#157=VECTOR('',#490,10.);
#158=VECTOR('',#495,2.1);
#159=VECTOR('',#500,2.1);
#160=VECTOR('',#505,2.5);
#161=VECTOR('',#508,2.5);
#162=VECTOR('',#513,10.);
#163=VERTEX_POINT('',#518);
#164=VERTEX_POINT('',#519);
#165=VERTEX_POINT('',#521);
#166=VERTEX_POINT('',#523);
#167=VERTEX_POINT('',#525);
#168=VERTEX_POINT('',#527);
#169=VERTEX_POINT('',#531);
#170=VERTEX_POINT('',#533);
#171=VERTEX_POINT('',#535);
#172=VERTEX_POINT('',#537);
#173=VERTEX_POINT('',#540);
#174=VERTEX_POINT('',#542);
#175=VERTEX_POINT('',#545);
#176=VERTEX_POINT('',#547);
#177=VERTEX_POINT('',#549);
#178=VERTEX_POINT('',#553);
#179=VERTEX_POINT('',#557);
#180=VERTEX_POINT('',#559);
#181=VERTEX_POINT('',#563);
#182=VERTEX_POINT('',#566);
#183=VERTEX_POINT('',#568);
#184=VERTEX_POINT('',#572);
#185=VERTEX_POINT('',#575);
#186=VERTEX_POINT('',#577);
#187=VERTEX_POINT('',#580);
#188=VERTEX_POINT('',#582);
#189=VERTEX_POINT('',#585);
#190=VERTEX_POINT('',#590);
#191=VERTEX_POINT('',#594);
#192=VERTEX_POINT('',#600);
#193=VERTEX_POINT('',#604);
#194=EDGE_CURVE('',#163,#164,#93,.T.);
#195=EDGE_CURVE('',#164,#165,#94,.T.);
#196=EDGE_CURVE('',#165,#166,#95,.T.);
#197=EDGE_CURVE('',#166,#167,#96,.T.);
#198=EDGE_CURVE('',#167,#168,#97,.T.);
#199=EDGE_CURVE('',#168,#163,#98,.T.);
#200=EDGE_CURVE('',#167,#169,#99,.T.);
#201=EDGE_CURVE('',#170,#169,#100,.T.);
#202=EDGE_CURVE('',#171,#170,#101,.T.);
#203=EDGE_CURVE('',#172,#171,#102,.T.);
#204=EDGE_CURVE('',#172,#168,#103,.T.);
#205=EDGE_CURVE('',#173,#173,#31,.T.);
#206=EDGE_CURVE('',#174,#174,#32,.T.);
#207=EDGE_CURVE('',#175,#172,#104,.T.);
#208=EDGE_CURVE('',#176,#175,#105,.T.);
#209=EDGE_CURVE('',#177,#176,#106,.T.);
#210=EDGE_CURVE('',#163,#177,#107,.T.);
#211=EDGE_CURVE('',#178,#177,#108,.T.);
#212=EDGE_CURVE('',#164,#178,#109,.T.);
#213=EDGE_CURVE('',#179,#179,#33,.T.);
#214=EDGE_CURVE('',#179,#180,#110,.T.);
#215=EDGE_CURVE('',#180,#180,#34,.T.);
#216=EDGE_CURVE('',#181,#181,#35,.T.);
#217=EDGE_CURVE('',#182,#182,#36,.T.);
#218=EDGE_CURVE('',#182,#183,#111,.T.);
#219=EDGE_CURVE('',#183,#183,#37,.T.);
#220=EDGE_CURVE('',#184,#184,#38,.T.);
#221=EDGE_CURVE('',#185,#175,#112,.T.);
#222=EDGE_CURVE('',#171,#186,#113,.T.);
#223=EDGE_CURVE('',#186,#185,#114,.T.);
#224=EDGE_CURVE('',#187,#187,#39,.T.);
#225=EDGE_CURVE('',#188,#188,#40,.T.);
#226=EDGE_CURVE('',#189,#186,#115,.T.);
#227=EDGE_CURVE('',#189,#185,#116,.T.);
#228=EDGE_CURVE('',#186,#170,#117,.T.);
#229=EDGE_CURVE('',#169,#190,#118,.T.);
#230=EDGE_CURVE('',#190,#189,#119,.T.);
#231=EDGE_CURVE('',#165,#191,#120,.T.);
#232=EDGE_CURVE('',#191,#176,#121,.T.);
#233=EDGE_CURVE('',#190,#166,#122,.T.);
#234=EDGE_CURVE('',#187,#192,#123,.T.);
#235=EDGE_CURVE('',#192,#192,#41,.T.);
#236=EDGE_CURVE('',#188,#193,#124,.T.);
#237=EDGE_CURVE('',#193,#193,#42,.T.);
#238=EDGE_CURVE('',#173,#184,#125,.T.);
#239=EDGE_CURVE('',#174,#181,#126,.T.);
#240=EDGE_CURVE('',#178,#191,#127,.T.);
#241=ORIENTED_EDGE('',*,*,#194,.T.);
#242=ORIENTED_EDGE('',*,*,#195,.T.);
#243=ORIENTED_EDGE('',*,*,#196,.T.);
#244=ORIENTED_EDGE('',*,*,#197,.T.);
#245=ORIENTED_EDGE('',*,*,#198,.T.);
#246=ORIENTED_EDGE('',*,*,#199,.T.);
#247=ORIENTED_EDGE('',*,*,#198,.F.);
#248=ORIENTED_EDGE('',*,*,#200,.T.);
#249=ORIENTED_EDGE('',*,*,#201,.F.);
#250=ORIENTED_EDGE('',*,*,#202,.F.);
#251=ORIENTED_EDGE('',*,*,#203,.F.);
#252=ORIENTED_EDGE('',*,*,#204,.T.);
#253=ORIENTED_EDGE('',*,*,#205,.F.);
#254=ORIENTED_EDGE('',*,*,#206,.F.);
#255=ORIENTED_EDGE('',*,*,#199,.F.);
#256=ORIENTED_EDGE('',*,*,#204,.F.);
#257=ORIENTED_EDGE('',*,*,#207,.F.);
#258=ORIENTED_EDGE('',*,*,#208,.F.);
#259=ORIENTED_EDGE('',*,*,#209,.F.);
#260=ORIENTED_EDGE('',*,*,#210,.F.);
#261=ORIENTED_EDGE('',*,*,#194,.F.);
#262=ORIENTED_EDGE('',*,*,#210,.T.);
#263=ORIENTED_EDGE('',*,*,#211,.F.);
#264=ORIENTED_EDGE('',*,*,#212,.F.);
#265=ORIENTED_EDGE('',*,*,#213,.T.);
#266=ORIENTED_EDGE('',*,*,#214,.T.);
#267=ORIENTED_EDGE('',*,*,#215,.F.);
#268=ORIENTED_EDGE('',*,*,#214,.F.);
#269=ORIENTED_EDGE('',*,*,#215,.T.);
#270=ORIENTED_EDGE('',*,*,#216,.T.);
#271=ORIENTED_EDGE('',*,*,#217,.T.);
#272=ORIENTED_EDGE('',*,*,#218,.T.);
#273=ORIENTED_EDGE('',*,*,#219,.F.);
#274=ORIENTED_EDGE('',*,*,#218,.F.);
#275=ORIENTED_EDGE('',*,*,#219,.T.);
#276=ORIENTED_EDGE('',*,*,#220,.T.);
#277=ORIENTED_EDGE('',*,*,#221,.T.);
#278=ORIENTED_EDGE('',*,*,#207,.T.);
#279=ORIENTED_EDGE('',*,*,#203,.T.);
#280=ORIENTED_EDGE('',*,*,#222,.T.);
#281=ORIENTED_EDGE('',*,*,#223,.T.);
#282=ORIENTED_EDGE('',*,*,#224,.T.);
#283=ORIENTED_EDGE('',*,*,#225,.T.);
#284=ORIENTED_EDGE('',*,*,#223,.F.);
#285=ORIENTED_EDGE('',*,*,#226,.F.);
#286=ORIENTED_EDGE('',*,*,#227,.T.);
#287=ORIENTED_EDGE('',*,*,#226,.T.);
#288=ORIENTED_EDGE('',*,*,#228,.T.);
#289=ORIENTED_EDGE('',*,*,#201,.T.);
#290=ORIENTED_EDGE('',*,*,#229,.T.);
#291=ORIENTED_EDGE('',*,*,#230,.T.);
#292=ORIENTED_EDGE('',*,*,#196,.F.);
#293=ORIENTED_EDGE('',*,*,#231,.T.);
#294=ORIENTED_EDGE('',*,*,#232,.T.);
#295=ORIENTED_EDGE('',*,*,#208,.T.);
#296=ORIENTED_EDGE('',*,*,#221,.F.);
#297=ORIENTED_EDGE('',*,*,#227,.F.);
#298=ORIENTED_EDGE('',*,*,#230,.F.);
#299=ORIENTED_EDGE('',*,*,#233,.T.);
#300=ORIENTED_EDGE('',*,*,#213,.F.);
#301=ORIENTED_EDGE('',*,*,#217,.F.);
#302=ORIENTED_EDGE('',*,*,#228,.F.);
#303=ORIENTED_EDGE('',*,*,#222,.F.);
#304=ORIENTED_EDGE('',*,*,#202,.T.);
#305=ORIENTED_EDGE('',*,*,#224,.F.);
#306=ORIENTED_EDGE('',*,*,#234,.T.);
#307=ORIENTED_EDGE('',*,*,#235,.T.);
#308=ORIENTED_EDGE('',*,*,#234,.F.);
#309=ORIENTED_EDGE('',*,*,#225,.F.);
#310=ORIENTED_EDGE('',*,*,#236,.T.);
#311=ORIENTED_EDGE('',*,*,#237,.T.);
#312=ORIENTED_EDGE('',*,*,#236,.F.);
#313=ORIENTED_EDGE('',*,*,#205,.T.);
#314=ORIENTED_EDGE('',*,*,#238,.T.);
#315=ORIENTED_EDGE('',*,*,#220,.F.);
#316=ORIENTED_EDGE('',*,*,#238,.F.);
#317=ORIENTED_EDGE('',*,*,#206,.T.);
#318=ORIENTED_EDGE('',*,*,#239,.T.);
#319=ORIENTED_EDGE('',*,*,#216,.F.);
#320=ORIENTED_EDGE('',*,*,#239,.F.);
#321=ORIENTED_EDGE('',*,*,#197,.F.);
#322=ORIENTED_EDGE('',*,*,#233,.F.);
#323=ORIENTED_EDGE('',*,*,#229,.F.);
#324=ORIENTED_EDGE('',*,*,#200,.F.);
#325=ORIENTED_EDGE('',*,*,#195,.F.);
#326=ORIENTED_EDGE('',*,*,#212,.T.);
#327=ORIENTED_EDGE('',*,*,#240,.T.);
#328=ORIENTED_EDGE('',*,*,#231,.F.);
#329=ORIENTED_EDGE('',*,*,#240,.F.);
#330=ORIENTED_EDGE('',*,*,#211,.T.);
#331=ORIENTED_EDGE('',*,*,#209,.T.);
#332=ORIENTED_EDGE('',*,*,#232,.F.);
#333=ORIENTED_EDGE('',*,*,#235,.F.);
#334=ORIENTED_EDGE('',*,*,#237,.F.);
#335=PLANE('',#383);
#336=PLANE('',#384);
#337=PLANE('',#387);
#338=PLANE('',#388);
#339=PLANE('',#392);
#340=PLANE('',#397);
#341=PLANE('',#399);
#342=PLANE('',#402);
#343=PLANE('',#403);
#344=PLANE('',#404);
#345=PLANE('',#405);
#346=PLANE('',#412);
#347=PLANE('',#413);
#348=PLANE('',#414);
#349=ADVANCED_FACE('',(#43),#335,.T.);
#350=ADVANCED_FACE('',(#44,#21,#22),#336,.F.);
#351=ADVANCED_FACE('',(#45),#337,.F.);
#352=ADVANCED_FACE('',(#46),#338,.F.);
#353=ADVANCED_FACE('',(#47),#15,.F.);
#354=ADVANCED_FACE('',(#48,#23),#339,.F.);
#355=ADVANCED_FACE('',(#49),#16,.F.);
#356=ADVANCED_FACE('',(#50,#24),#340,.F.);
#357=ADVANCED_FACE('',(#51,#25,#26),#341,.F.);
#358=ADVANCED_FACE('',(#52),#342,.T.);
#359=ADVANCED_FACE('',(#53),#343,.T.);
#360=ADVANCED_FACE('',(#54,#27,#28),#344,.F.);
#361=ADVANCED_FACE('',(#55),#345,.T.);
#362=ADVANCED_FACE('',(#56),#17,.F.);
#363=ADVANCED_FACE('',(#57),#18,.F.);
#364=ADVANCED_FACE('',(#58),#19,.F.);
#365=ADVANCED_FACE('',(#59),#20,.F.);
#366=ADVANCED_FACE('',(#60),#346,.F.);
#367=ADVANCED_FACE('',(#61),#347,.T.);
#368=ADVANCED_FACE('',(#62,#29,#30),#348,.F.);
#369=CLOSED_SHELL('',(#349,#350,#351,#352,#353,#354,#355,#356,#357,#358,
#359,#360,#361,#362,#363,#364,#365,#366,#367,#368));
#370=DERIVED_UNIT_ELEMENT(#372,1.);
#371=DERIVED_UNIT_ELEMENT(#620,-3.);
#372=(
MASS_UNIT()
NAMED_UNIT(*)
SI_UNIT(.KILO.,.GRAM.)
);
#373=DERIVED_UNIT((#370,#371));
#374=MEASURE_REPRESENTATION_ITEM('density measure',
POSITIVE_RATIO_MEASURE(7850.),#373);
#375=PROPERTY_DEFINITION_REPRESENTATION(#380,#377);
#376=PROPERTY_DEFINITION_REPRESENTATION(#381,#378);
#377=REPRESENTATION('material name',(#379),#617);
#378=REPRESENTATION('density',(#374),#617);
#379=DESCRIPTIVE_REPRESENTATION_ITEM('Acier','Acier');
#380=PROPERTY_DEFINITION('material property','material name',#627);
#381=PROPERTY_DEFINITION('material property','density of part',#627);
#382=AXIS2_PLACEMENT_3D('placement',#516,#415,#416);
#383=AXIS2_PLACEMENT_3D('',#517,#417,#418);
#384=AXIS2_PLACEMENT_3D('',#530,#425,#426);
#385=AXIS2_PLACEMENT_3D('',#541,#432,#433);
#386=AXIS2_PLACEMENT_3D('',#543,#434,#435);
#387=AXIS2_PLACEMENT_3D('',#544,#436,#437);
#388=AXIS2_PLACEMENT_3D('',#552,#442,#443);
#389=AXIS2_PLACEMENT_3D('',#556,#446,#447);
#390=AXIS2_PLACEMENT_3D('',#558,#448,#449);
#391=AXIS2_PLACEMENT_3D('',#561,#451,#452);
#392=AXIS2_PLACEMENT_3D('',#562,#453,#454);
#393=AXIS2_PLACEMENT_3D('',#564,#455,#456);
#394=AXIS2_PLACEMENT_3D('',#565,#457,#458);
#395=AXIS2_PLACEMENT_3D('',#567,#459,#460);
#396=AXIS2_PLACEMENT_3D('',#570,#462,#463);
#397=AXIS2_PLACEMENT_3D('',#571,#464,#465);
#398=AXIS2_PLACEMENT_3D('',#573,#466,#467);
#399=AXIS2_PLACEMENT_3D('',#574,#468,#469);
#400=AXIS2_PLACEMENT_3D('',#581,#473,#474);
#401=AXIS2_PLACEMENT_3D('',#583,#475,#476);
#402=AXIS2_PLACEMENT_3D('',#584,#477,#478);
#403=AXIS2_PLACEMENT_3D('',#588,#481,#482);
#404=AXIS2_PLACEMENT_3D('',#593,#486,#487);
#405=AXIS2_PLACEMENT_3D('',#598,#491,#492);
#406=AXIS2_PLACEMENT_3D('',#599,#493,#494);
#407=AXIS2_PLACEMENT_3D('',#602,#496,#497);
#408=AXIS2_PLACEMENT_3D('',#603,#498,#499);
#409=AXIS2_PLACEMENT_3D('',#606,#501,#502);
#410=AXIS2_PLACEMENT_3D('',#607,#503,#504);
#411=AXIS2_PLACEMENT_3D('',#609,#506,#507);
#412=AXIS2_PLACEMENT_3D('',#611,#509,#510);
#413=AXIS2_PLACEMENT_3D('',#612,#511,#512);
#414=AXIS2_PLACEMENT_3D('',#614,#514,#515);
#415=DIRECTION('axis',(0.,0.,1.));
#416=DIRECTION('refdir',(1.,0.,0.));
#417=DIRECTION('center_axis',(1.,0.,0.));
#418=DIRECTION('ref_axis',(0.,0.,-1.));
#419=DIRECTION('',(0.,0.,-1.));
#420=DIRECTION('',(0.,-1.,0.));
#421=DIRECTION('',(0.,0.,-1.));
#422=DIRECTION('',(0.,1.,0.));
#423=DIRECTION('',(0.,0.,1.));
#424=DIRECTION('',(0.,-1.,0.));
#425=DIRECTION('center_axis',(0.,-1.,0.));
#426=DIRECTION('ref_axis',(1.,0.,0.));
#427=DIRECTION('',(-1.,0.,0.));
#428=DIRECTION('',(0.,0.,-1.));
#429=DIRECTION('',(-1.,0.,0.));
#430=DIRECTION('',(0.,0.,-1.));
#431=DIRECTION('',(1.,0.,0.));
#432=DIRECTION('center_axis',(0.,1.,0.));
#433=DIRECTION('ref_axis',(-1.,0.,0.));
#434=DIRECTION('center_axis',(0.,1.,0.));
#435=DIRECTION('ref_axis',(-1.,0.,0.));
#436=DIRECTION('center_axis',(0.,0.,-1.));
#437=DIRECTION('ref_axis',(-1.,0.,0.));
#438=DIRECTION('',(0.342020143325666,0.939692620785909,0.));
#439=DIRECTION('',(-1.,0.,0.));
#440=DIRECTION('',(-0.342020143325655,-0.939692620785913,0.));
#441=DIRECTION('',(-1.,0.,0.));
#442=DIRECTION('center_axis',(0.,1.,0.));
#443=DIRECTION('ref_axis',(-1.,0.,0.));
#444=DIRECTION('',(0.,0.,1.));
#445=DIRECTION('',(-1.,0.,0.));
#446=DIRECTION('center_axis',(0.000223418388571502,-0.999999975042111,0.));
#447=DIRECTION('ref_axis',(0.,0.,1.));
#448=DIRECTION('center_axis',(0.,-1.,0.));
#449=DIRECTION('ref_axis',(-1.,0.,0.));
#450=DIRECTION('',(-0.000223418388571502,0.999999975042111,0.));
#451=DIRECTION('center_axis',(0.00022341838857155,-0.999999975042112,0.));
#452=DIRECTION('ref_axis',(0.,0.,1.));
#453=DIRECTION('center_axis',(-0.00022341838857155,0.999999975042112,0.));
#454=DIRECTION('ref_axis',(0.,0.,1.));
#455=DIRECTION('center_axis',(-0.00022341838857155,0.999999975042112,0.));
#456=DIRECTION('ref_axis',(-0.999999975042111,-0.00022341838857155,0.));
#457=DIRECTION('center_axis',(0.000223418388571502,-0.999999975042111,0.));
#458=DIRECTION('ref_axis',(0.,0.,1.));
#459=DIRECTION('center_axis',(0.,-1.,0.));
#460=DIRECTION('ref_axis',(-1.,0.,0.));
#461=DIRECTION('',(-0.000223418388571502,0.999999975042111,0.));
#462=DIRECTION('center_axis',(0.00022341838857155,-0.999999975042112,0.));
#463=DIRECTION('ref_axis',(0.,0.,1.));
#464=DIRECTION('center_axis',(-0.00022341838857155,0.999999975042112,0.));
#465=DIRECTION('ref_axis',(0.,0.,1.));
#466=DIRECTION('center_axis',(-0.00022341838857155,0.999999975042112,0.));
#467=DIRECTION('ref_axis',(-0.999999975042111,-0.00022341838857155,0.));
#468=DIRECTION('center_axis',(0.939692620785908,-0.342020143325669,0.));
#469=DIRECTION('ref_axis',(0.342020143325669,0.939692620785908,0.));
#470=DIRECTION('',(0.,0.,1.));
#471=DIRECTION('',(-0.342020143325669,-0.939692620785908,0.));
#472=DIRECTION('',(-0.342020143325669,-0.939692620785908,0.));
#473=DIRECTION('center_axis',(0.939692620785908,-0.342020143325669,0.));
#474=DIRECTION('ref_axis',(0.,0.,-1.));
#475=DIRECTION('center_axis',(0.939692620785908,-0.342020143325669,0.));
#476=DIRECTION('ref_axis',(0.,0.,-1.));
#477=DIRECTION('center_axis',(0.,0.,-1.));
#478=DIRECTION('ref_axis',(0.,1.,0.));
#479=DIRECTION('',(0.,1.,0.));
#480=DIRECTION('',(-1.,0.,0.));
#481=DIRECTION('center_axis',(-1.,0.,0.));
#482=DIRECTION('ref_axis',(0.,0.,1.));
#483=DIRECTION('',(0.,1.,0.));
#484=DIRECTION('',(0.,-1.,0.));
#485=DIRECTION('',(0.,0.,1.));
#486=DIRECTION('center_axis',(0.,1.,0.));
#487=DIRECTION('ref_axis',(-1.,0.,0.));
#488=DIRECTION('',(-1.,0.,0.));
#489=DIRECTION('',(0.,0.,1.));
#490=DIRECTION('',(1.,0.,0.));
#491=DIRECTION('center_axis',(0.,0.,1.));
#492=DIRECTION('ref_axis',(1.,0.,0.));
#493=DIRECTION('center_axis',(-0.939692620785909,0.342020143325669,0.));
#494=DIRECTION('ref_axis',(0.,0.,-1.));
#495=DIRECTION('',(0.939692620785909,-0.342020143325669,0.));
#496=DIRECTION('center_axis',(0.939692620785913,-0.342020143325655,0.));
#497=DIRECTION('ref_axis',(0.,0.,-1.));
#498=DIRECTION('center_axis',(-0.939692620785909,0.342020143325669,0.));
#499=DIRECTION('ref_axis',(0.,0.,-1.));
#500=DIRECTION('',(0.939692620785908,-0.342020143325669,0.));
#501=DIRECTION('center_axis',(0.939692620785913,-0.342020143325655,0.));
#502=DIRECTION('ref_axis',(0.,0.,-1.));
#503=DIRECTION('center_axis',(0.,1.,0.));
#504=DIRECTION('ref_axis',(-1.,0.,0.));
#505=DIRECTION('',(0.,-1.,0.));
#506=DIRECTION('center_axis',(0.,1.,0.));
#507=DIRECTION('ref_axis',(-1.,0.,0.));
#508=DIRECTION('',(0.,-1.,0.));
#509=DIRECTION('center_axis',(0.,0.,1.));
#510=DIRECTION('ref_axis',(1.,0.,0.));
#511=DIRECTION('center_axis',(0.,0.,1.));
#512=DIRECTION('ref_axis',(1.,0.,0.));
#513=DIRECTION('',(-0.342020143325655,-0.939692620785913,0.));
#514=DIRECTION('center_axis',(-0.939692620785913,0.342020143325655,0.));
#515=DIRECTION('ref_axis',(-0.342020143325655,-0.939692620785913,0.));
#516=CARTESIAN_POINT('',(0.,0.,0.));
#517=CARTESIAN_POINT('Origin',(48.,52.6577535495041,0.));
#518=CARTESIAN_POINT('',(48.,47.6577535495041,90.));
#519=CARTESIAN_POINT('',(48.,47.6577535495041,0.));
#520=CARTESIAN_POINT('',(48.,47.6577535495041,0.));
#521=CARTESIAN_POINT('',(48.,25.1829793549577,0.));
#522=CARTESIAN_POINT('',(48.,45.7890600008675,0.));
#523=CARTESIAN_POINT('',(48.,25.1829793549577,-120.));
#524=CARTESIAN_POINT('',(48.,25.1829793549577,0.));
#525=CARTESIAN_POINT('',(48.,52.6577535495041,-120.));
#526=CARTESIAN_POINT('',(48.,45.7890600008675,-120.));
#527=CARTESIAN_POINT('',(48.,52.6577535495041,90.));
#528=CARTESIAN_POINT('',(48.,52.6577535495041,0.));
#529=CARTESIAN_POINT('',(48.,45.7890600008675,90.));
#530=CARTESIAN_POINT('Origin',(34.329691138703,52.6577535495041,0.));
#531=CARTESIAN_POINT('',(25.919691138703,52.6577535495041,-120.));
#532=CARTESIAN_POINT('',(24.329691138703,52.6577535495041,-120.));
#533=CARTESIAN_POINT('',(25.919691138703,52.6577535495041,0.));
#534=CARTESIAN_POINT('',(25.919691138703,52.6577535495041,0.));
#535=CARTESIAN_POINT('',(35.9195727307821,52.6577535495041,0.));
#536=CARTESIAN_POINT('',(34.329691138703,52.6577535495041,0.));
#537=CARTESIAN_POINT('',(35.9195727307821,52.6577535495041,90.));
#538=CARTESIAN_POINT('',(35.9195727307821,52.6577535495041,0.));
#539=CARTESIAN_POINT('',(24.329691138703,52.6577535495041,90.));
#540=CARTESIAN_POINT('',(39.617,52.6577535495041,-20.));
#541=CARTESIAN_POINT('Origin',(37.5,52.6577535495041,-20.));
#542=CARTESIAN_POINT('',(39.617,52.6577535495041,-100.));
#543=CARTESIAN_POINT('Origin',(37.5,52.6577535495041,-100.));
#544=CARTESIAN_POINT('Origin',(37.1648455693515,38.9203664522309,90.));
#545=CARTESIAN_POINT('',(25.919572730782,25.1829793549577,90.));
#546=CARTESIAN_POINT('',(33.691861393675,46.5371669537393,90.));
#547=CARTESIAN_POINT('',(34.329691138703,25.1829793549577,90.));
#548=CARTESIAN_POINT('',(24.329691138703,25.1829793549577,90.));
#549=CARTESIAN_POINT('',(42.5098399673717,47.6577535495041,90.));
#550=CARTESIAN_POINT('',(42.5098399673717,47.6577535495041,90.));
#551=CARTESIAN_POINT('',(50.,47.6577535495041,90.));
#552=CARTESIAN_POINT('Origin',(50.,47.6577535495041,0.));
#553=CARTESIAN_POINT('',(42.5098399673717,47.6577535495041,0.));
#554=CARTESIAN_POINT('',(42.5098399673717,47.6577535495041,0.));
#555=CARTESIAN_POINT('',(50.,47.6577535495041,0.));
#556=CARTESIAN_POINT('Origin',(37.4970555967408,13.1855659511277,-100.000001490116));
#557=CARTESIAN_POINT('',(37.4943751539042,25.1829793549577,-102.500001527369));
#558=CARTESIAN_POINT('Origin',(37.4943751539042,25.1829793549577,-100.000001490116));
#559=CARTESIAN_POINT('',(37.4943745760779,25.185565651633,-102.500001527369));
#560=CARTESIAN_POINT('',(37.4970555967408,13.1855659511277,-102.500001527369));
#561=CARTESIAN_POINT('Origin',(37.4943745760779,25.185565651633,-100.000001490116));
#562=CARTESIAN_POINT('Origin',(37.4943745760779,25.185565651633,-100.000001490116));
#563=CARTESIAN_POINT('',(39.617,25.1860398851966,-100.));
#564=CARTESIAN_POINT('Origin',(37.5,25.1855669084562,-100.));
#565=CARTESIAN_POINT('Origin',(37.4970555967408,13.1855659511277,-20.0000002980232));
#566=CARTESIAN_POINT('',(37.4943751539042,25.1829793549577,-22.5000002980232));
#567=CARTESIAN_POINT('Origin',(37.4943751539042,25.1829793549577,-20.0000002980232));
#568=CARTESIAN_POINT('',(37.4943745760779,25.185565651633,-22.5000002980232));
#569=CARTESIAN_POINT('',(37.4970555967408,13.1855659511277,-22.5000002980232));
#570=CARTESIAN_POINT('Origin',(37.4943745760779,25.185565651633,-20.0000002980232));
#571=CARTESIAN_POINT('Origin',(37.4943745760779,25.185565651633,-20.0000002980232));
#572=CARTESIAN_POINT('',(39.617,25.1860398851966,-20.));
#573=CARTESIAN_POINT('Origin',(37.5,25.1855669084562,-20.));
#574=CARTESIAN_POINT('Origin',(25.7335919141571,24.6720012608292,0.));
#575=CARTESIAN_POINT('',(25.919572730782,25.1829793549577,0.));
#576=CARTESIAN_POINT('',(25.919572730782,25.1829793549577,0.));
#577=CARTESIAN_POINT('',(25.919691138703,25.1833046780469,0.));
#578=CARTESIAN_POINT('',(25.7335919141571,24.6720012608292,0.));
#579=CARTESIAN_POINT('',(25.7335919141571,24.6720012608292,0.));
#580=CARTESIAN_POINT('',(30.7335919141572,38.4093883581024,82.1000011920929));
#581=CARTESIAN_POINT('Origin',(30.7335919141572,38.4093883581024,80.0000011920929));
#582=CARTESIAN_POINT('',(30.7335919141572,38.4093883581024,12.1));
#583=CARTESIAN_POINT('Origin',(30.7335919141572,38.4093883581024,10.));
#584=CARTESIAN_POINT('Origin',(24.329691138703,25.1829793549577,0.));
#585=CARTESIAN_POINT('',(25.919691138703,25.1829793549577,0.));
#586=CARTESIAN_POINT('',(25.919691138703,25.1829793549577,0.));
#587=CARTESIAN_POINT('',(29.329691138703,25.1829793549577,0.));
#588=CARTESIAN_POINT('Origin',(25.919691138703,52.6577535495041,0.));
#589=CARTESIAN_POINT('',(25.919691138703,45.7890600008675,0.));
#590=CARTESIAN_POINT('',(25.919691138703,25.1829793549577,-120.));
#591=CARTESIAN_POINT('',(25.919691138703,45.7890600008675,-120.));
#592=CARTESIAN_POINT('',(25.919691138703,25.1829793549577,0.));
#593=CARTESIAN_POINT('Origin',(34.329691138703,25.1829793549577,0.));
#594=CARTESIAN_POINT('',(34.329691138703,25.1829793549577,0.));
#595=CARTESIAN_POINT('',(50.,25.1829793549577,0.));
#596=CARTESIAN_POINT('',(34.329691138703,25.1829793549577,0.));
#597=CARTESIAN_POINT('',(50.,25.1829793549577,-120.));
#598=CARTESIAN_POINT('Origin',(37.1648455693515,38.9203664522309,0.));
#599=CARTESIAN_POINT('Origin',(29.329691138703,38.9203664522309,80.0000011920929));
#600=CARTESIAN_POINT('',(38.1599133542976,35.7064284037984,82.1000011920929));
#601=CARTESIAN_POINT('',(29.329691138703,38.9203664522309,82.1000011920929));
#602=CARTESIAN_POINT('Origin',(38.1599133542976,35.7064284037984,80.0000011920929));
#603=CARTESIAN_POINT('Origin',(29.329691138703,38.9203664522309,10.));
#604=CARTESIAN_POINT('',(38.1599133542976,35.7064284037984,12.1));
#605=CARTESIAN_POINT('',(29.329691138703,38.9203664522309,12.1));
#606=CARTESIAN_POINT('Origin',(38.1599133542976,35.7064284037984,10.));
#607=CARTESIAN_POINT('Origin',(37.5,52.6577535495041,-20.));
#608=CARTESIAN_POINT('',(39.617,52.6577535495041,-20.));
#609=CARTESIAN_POINT('Origin',(37.5,52.6577535495041,-100.));
#610=CARTESIAN_POINT('',(39.617,52.6577535495041,-100.));
#611=CARTESIAN_POINT('Origin',(37.1648455693515,38.9203664522309,-120.));
#612=CARTESIAN_POINT('Origin',(37.1648455693515,38.9203664522309,0.));
#613=CARTESIAN_POINT('',(42.5098399673717,47.6577535495041,0.));
#614=CARTESIAN_POINT('Origin',(42.5098399673717,47.6577535495041,0.));
#615=UNCERTAINTY_MEASURE_WITH_UNIT(LENGTH_MEASURE(0.01),#619,
'DISTANCE_ACCURACY_VALUE',
'Maximum model space distance between geometric entities at asserted c
onnectivities');
#616=UNCERTAINTY_MEASURE_WITH_UNIT(LENGTH_MEASURE(0.01),#619,
'DISTANCE_ACCURACY_VALUE',
'Maximum model space distance between geometric entities at asserted c
onnectivities');
#617=(
GEOMETRIC_REPRESENTATION_CONTEXT(3)
GLOBAL_UNCERTAINTY_ASSIGNED_CONTEXT((#615))
GLOBAL_UNIT_ASSIGNED_CONTEXT((#619,#621,#622))
REPRESENTATION_CONTEXT('','3D')
);
#618=(
GEOMETRIC_REPRESENTATION_CONTEXT(3)
GLOBAL_UNCERTAINTY_ASSIGNED_CONTEXT((#616))
GLOBAL_UNIT_ASSIGNED_CONTEXT((#619,#621,#622))
REPRESENTATION_CONTEXT('','3D')
);
#619=(
LENGTH_UNIT()
NAMED_UNIT(*)
SI_UNIT(.MILLI.,.METRE.)
);
#620=(
LENGTH_UNIT()
NAMED_UNIT(*)
SI_UNIT($,.METRE.)
);
#621=(
NAMED_UNIT(*)
PLANE_ANGLE_UNIT()
SI_UNIT($,.RADIAN.)
);
#622=(
NAMED_UNIT(*)
SI_UNIT($,.STERADIAN.)
SOLID_ANGLE_UNIT()
);
#623=SHAPE_DEFINITION_REPRESENTATION(#624,#625);
#624=PRODUCT_DEFINITION_SHAPE('',$,#627);
#625=SHAPE_REPRESENTATION('',(#382),#617);
#626=PRODUCT_DEFINITION_CONTEXT('part definition',#631,'design');
#627=PRODUCT_DEFINITION('Guide gauche(Sym\X\E9trie miroir)',
'Guide gauche(Sym\X\E9trie miroir)',#628,#626);
#628=PRODUCT_DEFINITION_FORMATION('',$,#633);
#629=PRODUCT_RELATED_PRODUCT_CATEGORY('Guide gauche(Sym\X\E9trie miroi
r)','Guide gauche(Sym\X\E9trie miroir)',(#633));
#630=APPLICATION_PROTOCOL_DEFINITION('international standard',
'automotive_design',2009,#631);
#631=APPLICATION_CONTEXT(
'Core Data for Automotive Mechanical Design Process');
#632=PRODUCT_CONTEXT('part definition',#631,'mechanical');
#633=PRODUCT('Guide gauche(Sym\X\E9trie miroir)',
'Guide gauche(Sym\X\E9trie miroir)',$,(#632));
#634=PRESENTATION_STYLE_ASSIGNMENT((#635));
#635=SURFACE_STYLE_USAGE(.BOTH.,#636);
#636=SURFACE_SIDE_STYLE('',(#637));
#637=SURFACE_STYLE_FILL_AREA(#638);
#638=FILL_AREA_STYLE('Acier - Satin\X\E9',(#639));
#639=FILL_AREA_STYLE_COLOUR('Acier - Satin\X\E9',#640);
#640=COLOUR_RGB('Acier - Satin\X\E9',0.627450980392157,0.627450980392157,
0.627450980392157);
ENDSEC;
END-ISO-10303-21;
