ISO-10303-21;
HEADER;
FILE_DESCRIPTION(('CATIA V5 STEP Exchange'),'2;1');

FILE_NAME('D:\\MOGI Guitar\\MOGI Guitar - Documents\\Technique\\Prototypes\\Prototype_3\\V3.1\\STP\\Pointe filetee.stp','2022-11-25T14:01:29+00:00',('none'),('none'),'CATIA Version 5 Release 20 GA (IN-10)','CATIA V5 STEP AP203','none');

FILE_SCHEMA(('CONFIG_CONTROL_DESIGN'));

ENDSEC;
/* file written by CATIA V5R20 */
DATA;
#5=PRODUCT('Pointe filetee','','',(#2)) ;
#1=APPLICATION_CONTEXT('configuration controlled 3D design of mechanical parts and assemblies') ;
#14=PRODUCT_DEFINITION('',' ',#6,#3) ;
#16=SECURITY_CLASSIFICATION(' ',' ',#15) ;
#15=SECURITY_CLASSIFICATION_LEVEL('unclassified') ;
#47=CARTESIAN_POINT(' ',(0.,0.,0.)) ;
#52=CARTESIAN_POINT('Axis2P3D Location',(0.,0.,119.3)) ;
#57=CARTESIAN_POINT('Axis2P3D Location',(0.,-3.40772136326E-016,119.3)) ;
#61=CARTESIAN_POINT('Vertex',(3.35597877023,6.14307793323,119.3)) ;
#63=CARTESIAN_POINT('Vertex',(-3.35597877023,-6.14307793323,119.3)) ;
#66=CARTESIAN_POINT('Axis2P3D Location',(0.,-3.40772136326E-016,119.3)) ;
#75=CARTESIAN_POINT('Axis2P3D Location',(0.,0.,119.3)) ;
#79=CARTESIAN_POINT('Vertex',(2.,0.,119.3)) ;
#81=CARTESIAN_POINT('Vertex',(-2.,-2.44929359829E-016,119.3)) ;
#84=CARTESIAN_POINT('Axis2P3D Location',(0.,0.,119.3)) ;
#94=CARTESIAN_POINT('Axis2P3D Location',(0.,-1.46367208174E-014,119.3)) ;
#99=CARTESIAN_POINT('Axis2P3D Location',(0.,-1.46367208174E-014,119.3)) ;
#103=CARTESIAN_POINT('Vertex',(2.05494432948E-016,-1.42605657811E-014,126.3)) ;
#106=CARTESIAN_POINT('Axis2P3D Location',(0.,-1.46367208174E-014,119.3)) ;
#123=CARTESIAN_POINT('Axis2P3D Location',(0.,0.,91.65)) ;
#128=CARTESIAN_POINT('Line Origine',(-2.,-2.44929359829E-016,91.65)) ;
#132=CARTESIAN_POINT('Vertex',(-2.,-2.44929359829E-016,64.)) ;
#135=CARTESIAN_POINT('Axis2P3D Location',(0.,0.,64.)) ;
#139=CARTESIAN_POINT('Vertex',(2.,0.,64.)) ;
#142=CARTESIAN_POINT('Line Origine',(2.,0.,91.65)) ;
#154=CARTESIAN_POINT('Axis2P3D Location',(0.,0.,64.)) ;
#166=CARTESIAN_POINT('Axis2P3D Location',(0.,0.,64.)) ;
#53=DIRECTION('Axis2P3D Direction',(0.,0.,-1.)) ;
#54=DIRECTION('Axis2P3D XDirection',(1.,0.,0.)) ;
#58=DIRECTION('Axis2P3D Direction',(0.,0.,-1.)) ;
#67=DIRECTION('Axis2P3D Direction',(0.,0.,-1.)) ;
#76=DIRECTION('Axis2P3D Direction',(0.,0.,-1.)) ;
#85=DIRECTION('Axis2P3D Direction',(0.,0.,-1.)) ;
#95=DIRECTION('Axis2P3D Direction',(0.,0.,-1.)) ;
#96=DIRECTION('Axis2P3D XDirection',(0.479425538604,0.87758256189,0.)) ;
#100=DIRECTION('Axis2P3D Direction',(0.87758256189,-0.479425538604,0.)) ;
#107=DIRECTION('Axis2P3D Direction',(-0.87758256189,0.479425538604,0.)) ;
#124=DIRECTION('Axis2P3D Direction',(0.,0.,-1.)) ;
#125=DIRECTION('Axis2P3D XDirection',(1.,0.,0.)) ;
#129=DIRECTION('Vector Direction',(0.,0.,-1.)) ;
#136=DIRECTION('Axis2P3D Direction',(0.,0.,-1.)) ;
#143=DIRECTION('Vector Direction',(0.,0.,-1.)) ;
#155=DIRECTION('Axis2P3D Direction',(0.,0.,-1.)) ;
#167=DIRECTION('Axis2P3D Direction',(0.,0.,-1.)) ;
#168=DIRECTION('Axis2P3D XDirection',(1.,0.,0.)) ;
#48=AXIS2_PLACEMENT_3D(' ',#47,$,$) ;
#55=AXIS2_PLACEMENT_3D('Plane Axis2P3D',#52,#53,#54) ;
#59=AXIS2_PLACEMENT_3D('Circle Axis2P3D',#57,#58,$) ;
#68=AXIS2_PLACEMENT_3D('Circle Axis2P3D',#66,#67,$) ;
#77=AXIS2_PLACEMENT_3D('Circle Axis2P3D',#75,#76,$) ;
#86=AXIS2_PLACEMENT_3D('Circle Axis2P3D',#84,#85,$) ;
#97=AXIS2_PLACEMENT_3D('Sphere Axis2P3D',#94,#95,#96) ;
#101=AXIS2_PLACEMENT_3D('Circle Axis2P3D',#99,#100,$) ;
#108=AXIS2_PLACEMENT_3D('Circle Axis2P3D',#106,#107,$) ;
#126=AXIS2_PLACEMENT_3D('Cylinder Axis2P3D',#123,#124,#125) ;
#137=AXIS2_PLACEMENT_3D('Circle Axis2P3D',#135,#136,$) ;
#156=AXIS2_PLACEMENT_3D('Circle Axis2P3D',#154,#155,$) ;
#169=AXIS2_PLACEMENT_3D('Plane Axis2P3D',#166,#167,#168) ;
#40=PRODUCT_DEFINITION_SHAPE(' ',' ',#14) ;
#31=APPROVAL_PERSON_ORGANIZATION(#25,#21,#19) ;
#25=PERSON_AND_ORGANIZATION(#22,#23) ;
#22=PERSON(' ',' ',' ',$,$,$) ;
#23=ORGANIZATION(' ',' ',' ') ;
#21=APPROVAL(#20,' ') ;
#20=APPROVAL_STATUS('not_yet_approved') ;
#19=APPROVAL_ROLE('APPROVER') ;
#13=DATE_AND_TIME(#11,#12) ;
#12=LOCAL_TIME(15,1,29.,#10) ;
#10=COORDINATED_UNIVERSAL_TIME_OFFSET(0,0,.AHEAD.) ;
#72=ORIENTED_EDGE('',*,*,#65,.T.) ;
#73=ORIENTED_EDGE('',*,*,#70,.T.) ;
#90=ORIENTED_EDGE('',*,*,#83,.F.) ;
#91=ORIENTED_EDGE('',*,*,#88,.F.) ;
#112=ORIENTED_EDGE('',*,*,#70,.F.) ;
#113=ORIENTED_EDGE('',*,*,#105,.T.) ;
#114=ORIENTED_EDGE('',*,*,#110,.F.) ;
#118=ORIENTED_EDGE('',*,*,#65,.F.) ;
#119=ORIENTED_EDGE('',*,*,#110,.T.) ;
#120=ORIENTED_EDGE('',*,*,#105,.F.) ;
#148=ORIENTED_EDGE('',*,*,#83,.T.) ;
#149=ORIENTED_EDGE('',*,*,#134,.F.) ;
#150=ORIENTED_EDGE('',*,*,#141,.F.) ;
#151=ORIENTED_EDGE('',*,*,#146,.T.) ;
#160=ORIENTED_EDGE('',*,*,#88,.T.) ;
#161=ORIENTED_EDGE('',*,*,#146,.F.) ;
#162=ORIENTED_EDGE('',*,*,#158,.F.) ;
#163=ORIENTED_EDGE('',*,*,#134,.T.) ;
#172=ORIENTED_EDGE('',*,*,#141,.T.) ;
#173=ORIENTED_EDGE('',*,*,#158,.T.) ;
#92=FACE_BOUND('',#89,.T.) ;
#51=CLOSED_SHELL('Closed Shell',(#93,#116,#122,#153,#165,#175)) ;
#130=VECTOR('Line Direction',#129,1.) ;
#144=VECTOR('Line Direction',#143,1.) ;
#177=ADVANCED_BREP_SHAPE_REPRESENTATION('NONE',(#176),#46) ;
#49=SHAPE_REPRESENTATION(' ',(#48),#46) ;
#93=ADVANCED_FACE('Corps principal',(#74,#92),#56,.T.) ;
#116=ADVANCED_FACE('Corps principal',(#115),#98,.T.) ;
#122=ADVANCED_FACE('Corps principal',(#121),#98,.T.) ;
#153=ADVANCED_FACE('Corps principal',(#152),#127,.T.) ;
#165=ADVANCED_FACE('Corps principal',(#164),#127,.T.) ;
#175=ADVANCED_FACE('Corps principal',(#174),#170,.T.) ;
#4=APPLICATION_PROTOCOL_DEFINITION('international standard','config_control_design',1994,#1) ;
#32=APPROVAL_DATE_TIME(#13,#21) ;
#176=MANIFOLD_SOLID_BREP('Corps principal',#51) ;
#11=CALENDAR_DATE(2022,25,11) ;
#30=CC_DESIGN_APPROVAL(#21,(#16,#6,#14)) ;
#18=CC_DESIGN_DATE_AND_TIME_ASSIGNMENT(#13,#17,(#16)) ;
#29=CC_DESIGN_DATE_AND_TIME_ASSIGNMENT(#13,#28,(#14)) ;
#17=DATE_TIME_ROLE('classification_date') ;
#28=DATE_TIME_ROLE('creation_date') ;
#27=CC_DESIGN_PERSON_AND_ORGANIZATION_ASSIGNMENT(#25,#26,(#16)) ;
#33=CC_DESIGN_PERSON_AND_ORGANIZATION_ASSIGNMENT(#25,#34,(#6)) ;
#35=CC_DESIGN_PERSON_AND_ORGANIZATION_ASSIGNMENT(#25,#36,(#6,#14)) ;
#37=CC_DESIGN_PERSON_AND_ORGANIZATION_ASSIGNMENT(#25,#38,(#5)) ;
#26=PERSON_AND_ORGANIZATION_ROLE('classification_officer') ;
#34=PERSON_AND_ORGANIZATION_ROLE('design_supplier') ;
#36=PERSON_AND_ORGANIZATION_ROLE('creator') ;
#38=PERSON_AND_ORGANIZATION_ROLE('design_owner') ;
#39=CC_DESIGN_SECURITY_CLASSIFICATION(#16,(#6)) ;
#60=CIRCLE('generated circle',#59,7.) ;
#69=CIRCLE('generated circle',#68,7.) ;
#78=CIRCLE('generated circle',#77,2.) ;
#87=CIRCLE('generated circle',#86,2.) ;
#102=CIRCLE('generated circle',#101,7.) ;
#109=CIRCLE('generated circle',#108,7.) ;
#138=CIRCLE('generated circle',#137,2.) ;
#157=CIRCLE('generated circle',#156,2.) ;
#178=SHAPE_REPRESENTATION_RELATIONSHIP(' ',' ',#49,#177) ;
#127=CYLINDRICAL_SURFACE('generated cylinder',#126,2.) ;
#3=DESIGN_CONTEXT(' ',#1,'design') ;
#65=EDGE_CURVE('',#62,#64,#60,.T.) ;
#70=EDGE_CURVE('',#64,#62,#69,.T.) ;
#83=EDGE_CURVE('',#80,#82,#78,.T.) ;
#88=EDGE_CURVE('',#82,#80,#87,.T.) ;
#105=EDGE_CURVE('',#64,#104,#102,.F.) ;
#110=EDGE_CURVE('',#62,#104,#109,.F.) ;
#134=EDGE_CURVE('',#133,#82,#131,.F.) ;
#141=EDGE_CURVE('',#140,#133,#138,.T.) ;
#146=EDGE_CURVE('',#140,#80,#145,.F.) ;
#158=EDGE_CURVE('',#133,#140,#157,.T.) ;
#71=EDGE_LOOP('',(#72,#73)) ;
#89=EDGE_LOOP('',(#90,#91)) ;
#111=EDGE_LOOP('',(#112,#113,#114)) ;
#117=EDGE_LOOP('',(#118,#119,#120)) ;
#147=EDGE_LOOP('',(#148,#149,#150,#151)) ;
#159=EDGE_LOOP('',(#160,#161,#162,#163)) ;
#171=EDGE_LOOP('',(#172,#173)) ;
#74=FACE_OUTER_BOUND('',#71,.T.) ;
#115=FACE_OUTER_BOUND('',#111,.T.) ;
#121=FACE_OUTER_BOUND('',#117,.T.) ;
#152=FACE_OUTER_BOUND('',#147,.T.) ;
#164=FACE_OUTER_BOUND('',#159,.T.) ;
#174=FACE_OUTER_BOUND('',#171,.T.) ;
#45=UNCERTAINTY_MEASURE_WITH_UNIT(LENGTH_MEASURE(0.005),#41,'distance_accuracy_value','CONFUSED CURVE UNCERTAINTY') ;
#131=LINE('Line',#128,#130) ;
#145=LINE('Line',#142,#144) ;
#2=MECHANICAL_CONTEXT(' ',#1,'mechanical') ;
#24=PERSONAL_ADDRESS(' ',' ',' ',' ',' ',' ',' ',' ',' ',' ',' ',' ',(#22),' ') ;
#56=PLANE('Plane',#55) ;
#170=PLANE('Plane',#169) ;
#43=PLANE_ANGLE_MEASURE_WITH_UNIT(PLANE_ANGLE_MEASURE(0.0174532925199),#42) ;
#7=PRODUCT_CATEGORY('part',$) ;
#9=PRODUCT_CATEGORY_RELATIONSHIP(' ',' ',#7,#8) ;
#6=PRODUCT_DEFINITION_FORMATION_WITH_SPECIFIED_SOURCE('',' ',#5,.NOT_KNOWN.) ;
#8=PRODUCT_RELATED_PRODUCT_CATEGORY('detail',$,(#5)) ;
#50=SHAPE_DEFINITION_REPRESENTATION(#40,#49) ;
#98=SPHERICAL_SURFACE('',#97,7.) ;
#62=VERTEX_POINT('',#61) ;
#64=VERTEX_POINT('',#63) ;
#80=VERTEX_POINT('',#79) ;
#82=VERTEX_POINT('',#81) ;
#104=VERTEX_POINT('',#103) ;
#133=VERTEX_POINT('',#132) ;
#140=VERTEX_POINT('',#139) ;
#41=(LENGTH_UNIT()NAMED_UNIT(*)SI_UNIT(.MILLI.,.METRE.)) ;
#42=(NAMED_UNIT(*)PLANE_ANGLE_UNIT()SI_UNIT($,.RADIAN.)) ;
#44=(NAMED_UNIT(*)SI_UNIT($,.STERADIAN.)SOLID_ANGLE_UNIT()) ;
#46=(GEOMETRIC_REPRESENTATION_CONTEXT(3)GLOBAL_UNCERTAINTY_ASSIGNED_CONTEXT((#45))GLOBAL_UNIT_ASSIGNED_CONTEXT((#41,#42,#44))REPRESENTATION_CONTEXT(' ',' ')) ;
ENDSEC;
END-ISO-10303-21;
