ISO-10303-21;
HEADER;
/* Generated by software containing ST-Developer
 * from STEP Tools, Inc. (www.steptools.com) 
 */

FILE_DESCRIPTION(
/* description */ (''),
/* implementation_level */ '2;1');

FILE_NAME(
/* name */ 'Support canon 8,5mm.stp',
/* time_stamp */ '2022-11-15T11:35:55+01:00',
/* author */ ('ethomas'),
/* organization */ (''),
/* preprocessor_version */ 'ST-DEVELOPER v19.2',
/* originating_system */ 'Autodesk Inventor 2023',
/* authorisation */ '');

FILE_SCHEMA (('AUTOMOTIVE_DESIGN { 1 0 10303 214 3 1 1 }'));
ENDSEC;

DATA;
#10=MECHANICAL_DESIGN_GEOMETRIC_PRESENTATION_REPRESENTATION('',(#14,#15,
#16,#17,#18),#424);
#11=SHAPE_REPRESENTATION_RELATIONSHIP('SRR','None',#431,#12);
#12=ADVANCED_BREP_SHAPE_REPRESENTATION('',(#13),#423);
#13=MANIFOLD_SOLID_BREP('Solide1',#239);
#14=STYLED_ITEM('',(#441),#232);
#15=STYLED_ITEM('',(#441),#233);
#16=STYLED_ITEM('',(#441),#234);
#17=STYLED_ITEM('',(#441),#235);
#18=STYLED_ITEM('',(#440),#13);
#19=FACE_BOUND('',#47,.T.);
#20=FACE_BOUND('',#48,.T.);
#21=FACE_BOUND('',#49,.T.);
#22=FACE_BOUND('',#50,.T.);
#23=FACE_BOUND('',#60,.T.);
#24=FACE_BOUND('',#61,.T.);
#25=FACE_BOUND('',#62,.T.);
#26=FACE_BOUND('',#63,.T.);
#27=PLANE('',#265);
#28=PLANE('',#266);
#29=PLANE('',#275);
#30=PLANE('',#286);
#31=PLANE('',#287);
#32=FACE_OUTER_BOUND('',#44,.T.);
#33=FACE_OUTER_BOUND('',#45,.T.);
#34=FACE_OUTER_BOUND('',#46,.T.);
#35=FACE_OUTER_BOUND('',#51,.T.);
#36=FACE_OUTER_BOUND('',#52,.T.);
#37=FACE_OUTER_BOUND('',#53,.T.);
#38=FACE_OUTER_BOUND('',#54,.T.);
#39=FACE_OUTER_BOUND('',#55,.T.);
#40=FACE_OUTER_BOUND('',#56,.T.);
#41=FACE_OUTER_BOUND('',#57,.T.);
#42=FACE_OUTER_BOUND('',#58,.T.);
#43=FACE_OUTER_BOUND('',#59,.T.);
#44=EDGE_LOOP('',(#160,#161,#162,#163));
#45=EDGE_LOOP('',(#164,#165,#166,#167));
#46=EDGE_LOOP('',(#168,#169,#170,#171,#172,#173));
#47=EDGE_LOOP('',(#174));
#48=EDGE_LOOP('',(#175));
#49=EDGE_LOOP('',(#176));
#50=EDGE_LOOP('',(#177));
#51=EDGE_LOOP('',(#178,#179,#180,#181));
#52=EDGE_LOOP('',(#182,#183,#184,#185));
#53=EDGE_LOOP('',(#186,#187,#188,#189));
#54=EDGE_LOOP('',(#190,#191,#192,#193));
#55=EDGE_LOOP('',(#194,#195,#196,#197));
#56=EDGE_LOOP('',(#198,#199,#200,#201));
#57=EDGE_LOOP('',(#202,#203,#204,#205));
#58=EDGE_LOOP('',(#206,#207,#208,#209));
#59=EDGE_LOOP('',(#210,#211,#212,#213,#214,#215));
#60=EDGE_LOOP('',(#216));
#61=EDGE_LOOP('',(#217));
#62=EDGE_LOOP('',(#218));
#63=EDGE_LOOP('',(#219));
#64=LINE('',#364,#80);
#65=LINE('',#367,#81);
#66=LINE('',#370,#82);
#67=LINE('',#372,#83);
#68=LINE('',#373,#84);
#69=LINE('',#376,#85);
#70=LINE('',#380,#86);
#71=LINE('',#394,#87);
#72=LINE('',#395,#88);
#73=LINE('',#398,#89);
#74=LINE('',#399,#90);
#75=LINE('',#403,#91);
#76=LINE('',#407,#92);
#77=LINE('',#411,#93);
#78=LINE('',#415,#94);
#79=LINE('',#419,#95);
#80=VECTOR('',#294,10.);
#81=VECTOR('',#297,10.);
#82=VECTOR('',#300,10.);
#83=VECTOR('',#301,10.);
#84=VECTOR('',#302,10.);
#85=VECTOR('',#305,10.);
#86=VECTOR('',#308,10.);
#87=VECTOR('',#323,10.);
#88=VECTOR('',#324,10.);
#89=VECTOR('',#327,10.);
#90=VECTOR('',#328,10.);
#91=VECTOR('',#333,3.05);
#92=VECTOR('',#338,2.5);
#93=VECTOR('',#343,2.5);
#94=VECTOR('',#348,7.5);
#95=VECTOR('',#355,10.);
#96=CIRCLE('',#263,2.);
#97=CIRCLE('',#264,2.);
#98=CIRCLE('',#267,2.);
#99=CIRCLE('',#268,10.5);
#100=CIRCLE('',#269,3.05);
#101=CIRCLE('',#270,2.5);
#102=CIRCLE('',#271,2.5);
#103=CIRCLE('',#272,7.5);
#104=CIRCLE('',#274,2.);
#105=CIRCLE('',#277,3.05);
#106=CIRCLE('',#279,2.5);
#107=CIRCLE('',#281,2.5);
#108=CIRCLE('',#283,7.5);
#109=CIRCLE('',#285,10.5);
#110=VERTEX_POINT('',#360);
#111=VERTEX_POINT('',#361);
#112=VERTEX_POINT('',#363);
#113=VERTEX_POINT('',#365);
#114=VERTEX_POINT('',#369);
#115=VERTEX_POINT('',#371);
#116=VERTEX_POINT('',#375);
#117=VERTEX_POINT('',#377);
#118=VERTEX_POINT('',#379);
#119=VERTEX_POINT('',#382);
#120=VERTEX_POINT('',#384);
#121=VERTEX_POINT('',#386);
#122=VERTEX_POINT('',#388);
#123=VERTEX_POINT('',#391);
#124=VERTEX_POINT('',#392);
#125=VERTEX_POINT('',#397);
#126=VERTEX_POINT('',#401);
#127=VERTEX_POINT('',#405);
#128=VERTEX_POINT('',#409);
#129=VERTEX_POINT('',#413);
#130=EDGE_CURVE('',#110,#111,#96,.T.);
#131=EDGE_CURVE('',#111,#112,#64,.T.);
#132=EDGE_CURVE('',#112,#113,#97,.T.);
#133=EDGE_CURVE('',#113,#110,#65,.T.);
#134=EDGE_CURVE('',#113,#114,#66,.T.);
#135=EDGE_CURVE('',#114,#115,#67,.T.);
#136=EDGE_CURVE('',#110,#115,#68,.T.);
#137=EDGE_CURVE('',#116,#112,#69,.T.);
#138=EDGE_CURVE('',#117,#116,#98,.T.);
#139=EDGE_CURVE('',#118,#117,#70,.T.);
#140=EDGE_CURVE('',#114,#118,#99,.T.);
#141=EDGE_CURVE('',#119,#119,#100,.T.);
#142=EDGE_CURVE('',#120,#120,#101,.T.);
#143=EDGE_CURVE('',#121,#121,#102,.T.);
#144=EDGE_CURVE('',#122,#122,#103,.T.);
#145=EDGE_CURVE('',#123,#124,#104,.T.);
#146=EDGE_CURVE('',#124,#117,#71,.T.);
#147=EDGE_CURVE('',#116,#123,#72,.T.);
#148=EDGE_CURVE('',#125,#124,#73,.T.);
#149=EDGE_CURVE('',#118,#125,#74,.T.);
#150=EDGE_CURVE('',#126,#126,#105,.T.);
#151=EDGE_CURVE('',#126,#119,#75,.T.);
#152=EDGE_CURVE('',#127,#127,#106,.T.);
#153=EDGE_CURVE('',#127,#120,#76,.T.);
#154=EDGE_CURVE('',#128,#128,#107,.T.);
#155=EDGE_CURVE('',#128,#121,#77,.T.);
#156=EDGE_CURVE('',#129,#129,#108,.T.);
#157=EDGE_CURVE('',#129,#122,#78,.T.);
#158=EDGE_CURVE('',#115,#125,#109,.T.);
#159=EDGE_CURVE('',#123,#111,#79,.T.);
#160=ORIENTED_EDGE('',*,*,#130,.T.);
#161=ORIENTED_EDGE('',*,*,#131,.T.);
#162=ORIENTED_EDGE('',*,*,#132,.T.);
#163=ORIENTED_EDGE('',*,*,#133,.T.);
#164=ORIENTED_EDGE('',*,*,#133,.F.);
#165=ORIENTED_EDGE('',*,*,#134,.T.);
#166=ORIENTED_EDGE('',*,*,#135,.T.);
#167=ORIENTED_EDGE('',*,*,#136,.F.);
#168=ORIENTED_EDGE('',*,*,#132,.F.);
#169=ORIENTED_EDGE('',*,*,#137,.F.);
#170=ORIENTED_EDGE('',*,*,#138,.F.);
#171=ORIENTED_EDGE('',*,*,#139,.F.);
#172=ORIENTED_EDGE('',*,*,#140,.F.);
#173=ORIENTED_EDGE('',*,*,#134,.F.);
#174=ORIENTED_EDGE('',*,*,#141,.T.);
#175=ORIENTED_EDGE('',*,*,#142,.T.);
#176=ORIENTED_EDGE('',*,*,#143,.T.);
#177=ORIENTED_EDGE('',*,*,#144,.F.);
#178=ORIENTED_EDGE('',*,*,#145,.T.);
#179=ORIENTED_EDGE('',*,*,#146,.T.);
#180=ORIENTED_EDGE('',*,*,#138,.T.);
#181=ORIENTED_EDGE('',*,*,#147,.T.);
#182=ORIENTED_EDGE('',*,*,#146,.F.);
#183=ORIENTED_EDGE('',*,*,#148,.F.);
#184=ORIENTED_EDGE('',*,*,#149,.F.);
#185=ORIENTED_EDGE('',*,*,#139,.T.);
#186=ORIENTED_EDGE('',*,*,#150,.F.);
#187=ORIENTED_EDGE('',*,*,#151,.T.);
#188=ORIENTED_EDGE('',*,*,#141,.F.);
#189=ORIENTED_EDGE('',*,*,#151,.F.);
#190=ORIENTED_EDGE('',*,*,#152,.F.);
#191=ORIENTED_EDGE('',*,*,#153,.T.);
#192=ORIENTED_EDGE('',*,*,#142,.F.);
#193=ORIENTED_EDGE('',*,*,#153,.F.);
#194=ORIENTED_EDGE('',*,*,#154,.F.);
#195=ORIENTED_EDGE('',*,*,#155,.T.);
#196=ORIENTED_EDGE('',*,*,#143,.F.);
#197=ORIENTED_EDGE('',*,*,#155,.F.);
#198=ORIENTED_EDGE('',*,*,#156,.F.);
#199=ORIENTED_EDGE('',*,*,#157,.T.);
#200=ORIENTED_EDGE('',*,*,#144,.T.);
#201=ORIENTED_EDGE('',*,*,#157,.F.);
#202=ORIENTED_EDGE('',*,*,#140,.T.);
#203=ORIENTED_EDGE('',*,*,#149,.T.);
#204=ORIENTED_EDGE('',*,*,#158,.F.);
#205=ORIENTED_EDGE('',*,*,#135,.F.);
#206=ORIENTED_EDGE('',*,*,#131,.F.);
#207=ORIENTED_EDGE('',*,*,#159,.F.);
#208=ORIENTED_EDGE('',*,*,#147,.F.);
#209=ORIENTED_EDGE('',*,*,#137,.T.);
#210=ORIENTED_EDGE('',*,*,#130,.F.);
#211=ORIENTED_EDGE('',*,*,#136,.T.);
#212=ORIENTED_EDGE('',*,*,#158,.T.);
#213=ORIENTED_EDGE('',*,*,#148,.T.);
#214=ORIENTED_EDGE('',*,*,#145,.F.);
#215=ORIENTED_EDGE('',*,*,#159,.T.);
#216=ORIENTED_EDGE('',*,*,#150,.T.);
#217=ORIENTED_EDGE('',*,*,#152,.T.);
#218=ORIENTED_EDGE('',*,*,#154,.T.);
#219=ORIENTED_EDGE('',*,*,#156,.T.);
#220=CYLINDRICAL_SURFACE('',#262,2.);
#221=CYLINDRICAL_SURFACE('',#273,2.);
#222=CYLINDRICAL_SURFACE('',#276,3.05);
#223=CYLINDRICAL_SURFACE('',#278,2.5);
#224=CYLINDRICAL_SURFACE('',#280,2.5);
#225=CYLINDRICAL_SURFACE('',#282,7.5);
#226=CYLINDRICAL_SURFACE('',#284,10.5);
#227=ADVANCED_FACE('',(#32),#220,.T.);
#228=ADVANCED_FACE('',(#33),#27,.T.);
#229=ADVANCED_FACE('',(#34,#19,#20,#21,#22),#28,.F.);
#230=ADVANCED_FACE('',(#35),#221,.T.);
#231=ADVANCED_FACE('',(#36),#29,.T.);
#232=ADVANCED_FACE('',(#37),#222,.F.);
#233=ADVANCED_FACE('',(#38),#223,.F.);
#234=ADVANCED_FACE('',(#39),#224,.F.);
#235=ADVANCED_FACE('',(#40),#225,.F.);
#236=ADVANCED_FACE('',(#41),#226,.T.);
#237=ADVANCED_FACE('',(#42),#30,.T.);
#238=ADVANCED_FACE('',(#43,#23,#24,#25,#26),#31,.T.);
#239=CLOSED_SHELL('',(#227,#228,#229,#230,#231,#232,#233,#234,#235,#236,
#237,#238));
#240=DERIVED_UNIT_ELEMENT(#243,1.);
#241=DERIVED_UNIT_ELEMENT(#426,-3.);
#242=DIMENSIONAL_EXPONENTS(0.,1.,0.,0.,0.,0.,0.);
#243=(
CONVERSION_BASED_UNIT('gram',#245)
MASS_UNIT()
NAMED_UNIT(#242)
);
#244=(
MASS_UNIT()
NAMED_UNIT(*)
SI_UNIT(.KILO.,.GRAM.)
);
#245=MASS_MEASURE_WITH_UNIT(MASS_MEASURE(0.001),#244);
#246=DERIVED_UNIT((#240,#241));
#247=MEASURE_REPRESENTATION_ITEM('density measure',
POSITIVE_RATIO_MEASURE(7.85),#246);
#248=PROPERTY_DEFINITION_REPRESENTATION(#253,#250);
#249=PROPERTY_DEFINITION_REPRESENTATION(#254,#251);
#250=REPRESENTATION('material name',(#252),#423);
#251=REPRESENTATION('density',(#247),#423);
#252=DESCRIPTIVE_REPRESENTATION_ITEM('Acier','Acier');
#253=PROPERTY_DEFINITION('material property','material name',#433);
#254=PROPERTY_DEFINITION('material property','density of part',#433);
#255=DATE_TIME_ROLE('creation_date');
#256=APPLIED_DATE_AND_TIME_ASSIGNMENT(#257,#255,(#433));
#257=DATE_AND_TIME(#258,#259);
#258=CALENDAR_DATE(2022,30,9);
#259=LOCAL_TIME(0,0,0.,#260);
#260=COORDINATED_UNIVERSAL_TIME_OFFSET(0,0,.BEHIND.);
#261=AXIS2_PLACEMENT_3D('placement',#358,#288,#289);
#262=AXIS2_PLACEMENT_3D('',#359,#290,#291);
#263=AXIS2_PLACEMENT_3D('',#362,#292,#293);
#264=AXIS2_PLACEMENT_3D('',#366,#295,#296);
#265=AXIS2_PLACEMENT_3D('',#368,#298,#299);
#266=AXIS2_PLACEMENT_3D('',#374,#303,#304);
#267=AXIS2_PLACEMENT_3D('',#378,#306,#307);
#268=AXIS2_PLACEMENT_3D('',#381,#309,#310);
#269=AXIS2_PLACEMENT_3D('',#383,#311,#312);
#270=AXIS2_PLACEMENT_3D('',#385,#313,#314);
#271=AXIS2_PLACEMENT_3D('',#387,#315,#316);
#272=AXIS2_PLACEMENT_3D('',#389,#317,#318);
#273=AXIS2_PLACEMENT_3D('',#390,#319,#320);
#274=AXIS2_PLACEMENT_3D('',#393,#321,#322);
#275=AXIS2_PLACEMENT_3D('',#396,#325,#326);
#276=AXIS2_PLACEMENT_3D('',#400,#329,#330);
#277=AXIS2_PLACEMENT_3D('',#402,#331,#332);
#278=AXIS2_PLACEMENT_3D('',#404,#334,#335);
#279=AXIS2_PLACEMENT_3D('',#406,#336,#337);
#280=AXIS2_PLACEMENT_3D('',#408,#339,#340);
#281=AXIS2_PLACEMENT_3D('',#410,#341,#342);
#282=AXIS2_PLACEMENT_3D('',#412,#344,#345);
#283=AXIS2_PLACEMENT_3D('',#414,#346,#347);
#284=AXIS2_PLACEMENT_3D('',#416,#349,#350);
#285=AXIS2_PLACEMENT_3D('',#417,#351,#352);
#286=AXIS2_PLACEMENT_3D('',#418,#353,#354);
#287=AXIS2_PLACEMENT_3D('',#420,#356,#357);
#288=DIRECTION('axis',(0.,0.,1.));
#289=DIRECTION('refdir',(1.,0.,0.));
#290=DIRECTION('center_axis',(0.,0.,1.));
#291=DIRECTION('ref_axis',(-0.707106781186548,-0.707106781186547,0.));
#292=DIRECTION('center_axis',(0.,0.,-1.));
#293=DIRECTION('ref_axis',(-0.707106781186548,-0.707106781186547,0.));
#294=DIRECTION('',(0.,0.,-1.));
#295=DIRECTION('center_axis',(0.,0.,1.));
#296=DIRECTION('ref_axis',(-0.707106781186548,-0.707106781186547,0.));
#297=DIRECTION('',(0.,0.,1.));
#298=DIRECTION('center_axis',(1.20024110770287E-16,-1.,0.));
#299=DIRECTION('ref_axis',(1.,1.20024110770287E-16,0.));
#300=DIRECTION('',(1.,1.20024110770287E-16,0.));
#301=DIRECTION('',(0.,0.,1.));
#302=DIRECTION('',(1.,1.20024110770287E-16,0.));
#303=DIRECTION('center_axis',(0.,0.,1.));
#304=DIRECTION('ref_axis',(1.,0.,0.));
#305=DIRECTION('',(0.,-1.,0.));
#306=DIRECTION('center_axis',(0.,0.,1.));
#307=DIRECTION('ref_axis',(-0.707106781186548,0.707106781186547,0.));
#308=DIRECTION('',(-1.,-9.00180830777154E-17,0.));
#309=DIRECTION('center_axis',(0.,0.,1.));
#310=DIRECTION('ref_axis',(0.,-1.,0.));
#311=DIRECTION('center_axis',(0.,0.,1.));
#312=DIRECTION('ref_axis',(1.,0.,0.));
#313=DIRECTION('center_axis',(0.,0.,1.));
#314=DIRECTION('ref_axis',(1.,0.,0.));
#315=DIRECTION('center_axis',(0.,0.,1.));
#316=DIRECTION('ref_axis',(1.,0.,0.));
#317=DIRECTION('center_axis',(0.,0.,-1.));
#318=DIRECTION('ref_axis',(-1.,0.,0.));
#319=DIRECTION('center_axis',(0.,0.,1.));
#320=DIRECTION('ref_axis',(-0.707106781186548,0.707106781186547,0.));
#321=DIRECTION('center_axis',(0.,0.,-1.));
#322=DIRECTION('ref_axis',(-0.707106781186548,0.707106781186547,0.));
#323=DIRECTION('',(0.,0.,-1.));
#324=DIRECTION('',(0.,0.,1.));
#325=DIRECTION('center_axis',(-9.00180830777154E-17,1.,0.));
#326=DIRECTION('ref_axis',(-1.,-9.00180830777154E-17,0.));
#327=DIRECTION('',(-1.,-9.00180830777154E-17,0.));
#328=DIRECTION('',(0.,0.,1.));
#329=DIRECTION('center_axis',(0.,0.,1.));
#330=DIRECTION('ref_axis',(1.,0.,0.));
#331=DIRECTION('center_axis',(0.,0.,-1.));
#332=DIRECTION('ref_axis',(1.,0.,0.));
#333=DIRECTION('',(0.,0.,-1.));
#334=DIRECTION('center_axis',(0.,0.,1.));
#335=DIRECTION('ref_axis',(1.,0.,0.));
#336=DIRECTION('center_axis',(0.,0.,-1.));
#337=DIRECTION('ref_axis',(1.,0.,0.));
#338=DIRECTION('',(0.,0.,-1.));
#339=DIRECTION('center_axis',(0.,0.,1.));
#340=DIRECTION('ref_axis',(1.,0.,0.));
#341=DIRECTION('center_axis',(0.,0.,-1.));
#342=DIRECTION('ref_axis',(1.,0.,0.));
#343=DIRECTION('',(0.,0.,-1.));
#344=DIRECTION('center_axis',(0.,0.,1.));
#345=DIRECTION('ref_axis',(-1.,0.,0.));
#346=DIRECTION('center_axis',(0.,0.,-1.));
#347=DIRECTION('ref_axis',(-1.,0.,0.));
#348=DIRECTION('',(0.,0.,-1.));
#349=DIRECTION('center_axis',(0.,0.,1.));
#350=DIRECTION('ref_axis',(0.,-1.,0.));
#351=DIRECTION('center_axis',(0.,0.,1.));
#352=DIRECTION('ref_axis',(0.,-1.,0.));
#353=DIRECTION('center_axis',(-1.,0.,0.));
#354=DIRECTION('ref_axis',(0.,-1.,0.));
#355=DIRECTION('',(0.,-1.,0.));
#356=DIRECTION('center_axis',(0.,0.,1.));
#357=DIRECTION('ref_axis',(1.,0.,0.));
#358=CARTESIAN_POINT('',(0.,0.,0.));
#359=CARTESIAN_POINT('Origin',(-37.,-8.5,0.));
#360=CARTESIAN_POINT('',(-37.,-10.5,10.));
#361=CARTESIAN_POINT('',(-39.,-8.5,10.));
#362=CARTESIAN_POINT('Origin',(-37.,-8.5,10.));
#363=CARTESIAN_POINT('',(-39.,-8.5,0.));
#364=CARTESIAN_POINT('',(-39.,-8.5,0.));
#365=CARTESIAN_POINT('',(-37.,-10.5,0.));
#366=CARTESIAN_POINT('Origin',(-37.,-8.5,0.));
#367=CARTESIAN_POINT('',(-37.,-10.5,0.));
#368=CARTESIAN_POINT('Origin',(-39.,-10.5,0.));
#369=CARTESIAN_POINT('',(35.,-10.5,0.));
#370=CARTESIAN_POINT('',(-39.,-10.5,0.));
#371=CARTESIAN_POINT('',(35.,-10.5,10.));
#372=CARTESIAN_POINT('',(35.,-10.5,0.));
#373=CARTESIAN_POINT('',(-39.,-10.5,10.));
#374=CARTESIAN_POINT('Origin',(3.25,3.33066907387547E-15,0.));
#375=CARTESIAN_POINT('',(-39.,8.5,0.));
#376=CARTESIAN_POINT('',(-39.,10.5,0.));
#377=CARTESIAN_POINT('',(-37.,10.5,0.));
#378=CARTESIAN_POINT('Origin',(-37.,8.5,0.));
#379=CARTESIAN_POINT('',(35.,10.5,0.));
#380=CARTESIAN_POINT('',(35.,10.5,0.));
#381=CARTESIAN_POINT('Origin',(35.,6.66133814775094E-15,0.));
#382=CARTESIAN_POINT('',(-17.05,-3.73517273739943E-16,0.));
#383=CARTESIAN_POINT('Origin',(-14.,0.,0.));
#384=CARTESIAN_POINT('',(-33.5,-3.06161699786838E-16,0.));
#385=CARTESIAN_POINT('Origin',(-31.,0.,0.));
#386=CARTESIAN_POINT('',(0.499999999999998,-3.06161699786838E-16,0.));
#387=CARTESIAN_POINT('Origin',(3.,0.,0.));
#388=CARTESIAN_POINT('',(42.5,7.57982324711145E-15,0.));
#389=CARTESIAN_POINT('Origin',(35.,6.66133814775094E-15,0.));
#390=CARTESIAN_POINT('Origin',(-37.,8.5,0.));
#391=CARTESIAN_POINT('',(-39.,8.5,10.));
#392=CARTESIAN_POINT('',(-37.,10.5,10.));
#393=CARTESIAN_POINT('Origin',(-37.,8.5,10.));
#394=CARTESIAN_POINT('',(-37.,10.5,0.));
#395=CARTESIAN_POINT('',(-39.,8.5,0.));
#396=CARTESIAN_POINT('Origin',(35.,10.5,0.));
#397=CARTESIAN_POINT('',(35.,10.5,10.));
#398=CARTESIAN_POINT('',(35.,10.5,10.));
#399=CARTESIAN_POINT('',(35.,10.5,0.));
#400=CARTESIAN_POINT('Origin',(-14.,0.,-77.6427407147905));
#401=CARTESIAN_POINT('',(-17.05,-3.73517273739943E-16,10.));
#402=CARTESIAN_POINT('Origin',(-14.,0.,10.));
#403=CARTESIAN_POINT('',(-17.05,-3.73517273739943E-16,-77.6427407147905));
#404=CARTESIAN_POINT('Origin',(-31.,0.,-77.6427407147905));
#405=CARTESIAN_POINT('',(-33.5,-3.06161699786838E-16,10.));
#406=CARTESIAN_POINT('Origin',(-31.,0.,10.));
#407=CARTESIAN_POINT('',(-33.5,-3.06161699786838E-16,-77.6427407147905));
#408=CARTESIAN_POINT('Origin',(3.,0.,-77.6427407147905));
#409=CARTESIAN_POINT('',(0.499999999999998,-3.06161699786838E-16,10.));
#410=CARTESIAN_POINT('Origin',(3.,0.,10.));
#411=CARTESIAN_POINT('',(0.499999999999998,-3.06161699786838E-16,-77.6427407147905));
#412=CARTESIAN_POINT('Origin',(35.,6.66133814775094E-15,0.));
#413=CARTESIAN_POINT('',(42.5,6.66133814775094E-15,10.));
#414=CARTESIAN_POINT('Origin',(35.,6.66133814775094E-15,10.));
#415=CARTESIAN_POINT('',(42.5,7.57982324711145E-15,0.));
#416=CARTESIAN_POINT('Origin',(35.,6.66133814775094E-15,0.));
#417=CARTESIAN_POINT('Origin',(35.,6.66133814775094E-15,10.));
#418=CARTESIAN_POINT('Origin',(-39.,10.5,0.));
#419=CARTESIAN_POINT('',(-39.,10.5,10.));
#420=CARTESIAN_POINT('Origin',(3.25,3.33066907387547E-15,10.));
#421=UNCERTAINTY_MEASURE_WITH_UNIT(LENGTH_MEASURE(0.01),#425,
'DISTANCE_ACCURACY_VALUE',
'Maximum model space distance between geometric entities at asserted c
onnectivities');
#422=UNCERTAINTY_MEASURE_WITH_UNIT(LENGTH_MEASURE(0.01),#425,
'DISTANCE_ACCURACY_VALUE',
'Maximum model space distance between geometric entities at asserted c
onnectivities');
#423=(
GEOMETRIC_REPRESENTATION_CONTEXT(3)
GLOBAL_UNCERTAINTY_ASSIGNED_CONTEXT((#421))
GLOBAL_UNIT_ASSIGNED_CONTEXT((#425,#427,#428))
REPRESENTATION_CONTEXT('','3D')
);
#424=(
GEOMETRIC_REPRESENTATION_CONTEXT(3)
GLOBAL_UNCERTAINTY_ASSIGNED_CONTEXT((#422))
GLOBAL_UNIT_ASSIGNED_CONTEXT((#425,#427,#428))
REPRESENTATION_CONTEXT('','3D')
);
#425=(
LENGTH_UNIT()
NAMED_UNIT(*)
SI_UNIT(.MILLI.,.METRE.)
);
#426=(
LENGTH_UNIT()
NAMED_UNIT(*)
SI_UNIT(.CENTI.,.METRE.)
);
#427=(
NAMED_UNIT(*)
PLANE_ANGLE_UNIT()
SI_UNIT($,.RADIAN.)
);
#428=(
NAMED_UNIT(*)
SI_UNIT($,.STERADIAN.)
SOLID_ANGLE_UNIT()
);
#429=SHAPE_DEFINITION_REPRESENTATION(#430,#431);
#430=PRODUCT_DEFINITION_SHAPE('',$,#433);
#431=SHAPE_REPRESENTATION('',(#261),#423);
#432=PRODUCT_DEFINITION_CONTEXT('part definition',#437,'design');
#433=PRODUCT_DEFINITION('Support canon 8,5mm','Support canon 8,5mm',#434,
#432);
#434=PRODUCT_DEFINITION_FORMATION('',$,#439);
#435=PRODUCT_RELATED_PRODUCT_CATEGORY('Support canon 8,5mm',
'Support canon 8,5mm',(#439));
#436=APPLICATION_PROTOCOL_DEFINITION('international standard',
'automotive_design',2009,#437);
#437=APPLICATION_CONTEXT(
'Core Data for Automotive Mechanical Design Process');
#438=PRODUCT_CONTEXT('part definition',#437,'mechanical');
#439=PRODUCT('Support canon 8,5mm','Support canon 8,5mm',$,(#438));
#440=PRESENTATION_STYLE_ASSIGNMENT((#442));
#441=PRESENTATION_STYLE_ASSIGNMENT((#443));
#442=SURFACE_STYLE_USAGE(.BOTH.,#446);
#443=SURFACE_STYLE_USAGE(.BOTH.,#447);
#444=SURFACE_STYLE_RENDERING_WITH_PROPERTIES($,#454,(#445));
#445=SURFACE_STYLE_TRANSPARENT(0.);
#446=SURFACE_SIDE_STYLE('',(#448,#444));
#447=SURFACE_SIDE_STYLE('',(#449));
#448=SURFACE_STYLE_FILL_AREA(#450);
#449=SURFACE_STYLE_FILL_AREA(#451);
#450=FILL_AREA_STYLE('',(#452));
#451=FILL_AREA_STYLE('',(#453));
#452=FILL_AREA_STYLE_COLOUR('',#454);
#453=FILL_AREA_STYLE_COLOUR('',#455);
#454=COLOUR_RGB('',0.866666666666667,0.866666666666667,0.0509803921568627);
#455=COLOUR_RGB('',0.603921568627451,0.603921568627451,0.627450980392157);
ENDSEC;
END-ISO-10303-21;
