ISO-10303-21;
HEADER;
FILE_DESCRIPTION (( 'STEP AP214' ),
    '1' );
FILE_NAME ('Conic.STEP',
    '2022-11-08T16:57:31',
    ( '' ),
    ( '' ),
    'SwSTEP 2.0',
    'SolidWorks 2014',
    '' );
FILE_SCHEMA (( 'AUTOMOTIVE_DESIGN' ));
ENDSEC;

DATA;
#1 = LINE ( 'NONE', #171, #101 ) ;
#2 = FACE_OUTER_BOUND ( 'NONE', #170, .T. ) ;
#3 = EDGE_CURVE ( 'NONE', #243, #66, #44, .T. ) ;
#4 = MANIFOLD_SOLID_BREP ( 'Révolution1', #245 ) ;
#5 = ORIENTED_EDGE ( 'NONE', *, *, #235, .F. ) ;
#6 = ORIENTED_EDGE ( 'NONE', *, *, #214, .T. ) ;
#7 = CARTESIAN_POINT ( 'NONE',  ( 4.000000000000000000, 7.000000000000000000, 0.0000000000000000000 ) ) ;
#8 = PRODUCT_DEFINITION_SHAPE ( 'NONE', 'NONE',  #118 ) ;
#9 = LINE ( 'NONE', #221, #34 ) ;
#10 = AXIS2_PLACEMENT_3D ( 'NONE', #190, #215, #223 ) ;
#11 = VERTEX_POINT ( 'NONE', #94 ) ;
#12 = DIRECTION ( 'NONE',  ( 0.0000000000000000000, 1.000000000000000000, 0.0000000000000000000 ) ) ;
#13 = AXIS2_PLACEMENT_3D ( 'NONE', #37, #231, #17 ) ;
#14 = CIRCLE ( 'NONE', #140, 7.000000000000000900 ) ;
#15 = ORIENTED_EDGE ( 'NONE', *, *, #228, .T. ) ;
#16 = PRODUCT_DEFINITION_CONTEXT ( 'detailed design', #84, 'design' ) ;
#17 = DIRECTION ( 'NONE',  ( 0.0000000000000000000, 0.0000000000000000000, -1.000000000000000000 ) ) ;
#18 = CARTESIAN_POINT ( 'NONE',  ( 0.0000000000000000000, 1.522832031440369500E-015, 0.0000000000000000000 ) ) ;
#19 = ORIENTED_EDGE ( 'NONE', *, *, #239, .T. ) ;
#20 = ORIENTED_EDGE ( 'NONE', *, *, #218, .T. ) ;
#21 = ORIENTED_EDGE ( 'NONE', *, *, #211, .F. ) ;
#22 = CYLINDRICAL_SURFACE ( 'NONE', #174, 7.000000000000000900 ) ;
#23 = CARTESIAN_POINT ( 'NONE',  ( 7.809151217556974800E-016, 4.251181187979603400E-017, -5.753311767921998900 ) ) ;
#24 = DIRECTION ( 'NONE',  ( 0.0000000000000000000, 0.0000000000000000000, -1.000000000000000000 ) ) ;
#25 = LINE ( 'NONE', #160, #65 ) ;
#26 = ORIENTED_EDGE ( 'NONE', *, *, #59, .F. ) ;
#27 = ORIENTED_EDGE ( 'NONE', *, *, #218, .F. ) ;
#28 = ORIENTED_EDGE ( 'NONE', *, *, #214, .F. ) ;
#29 = PRESENTATION_LAYER_ASSIGNMENT (  '', '', ( #126 ) ) ;
#30 = ORIENTED_EDGE ( 'NONE', *, *, #247, .T. ) ;
#31 = DIRECTION ( 'NONE',  ( -0.0000000000000000000, -1.000000000000000000, -0.0000000000000000000 ) ) ;
#32 = ORIENTED_EDGE ( 'NONE', *, *, #225, .F. ) ;
#33 = ORIENTED_EDGE ( 'NONE', *, *, #248, .F. ) ;
#34 = VECTOR ( 'NONE', #242, 1000.000000000000000 ) ;
#35 = UNCERTAINTY_MEASURE_WITH_UNIT (LENGTH_MEASURE( 1.000000000000000100E-005 ), #114, 'distance_accuracy_value', 'NONE');
#36 = CYLINDRICAL_SURFACE ( 'NONE', #172, 4.000000000000000000 ) ;
#37 = CARTESIAN_POINT ( 'NONE',  ( 5.753311767921998900, 7.826719216600826400E-016, 0.0000000000000000000 ) ) ;
#38 = LINE ( 'NONE', #173, #40 ) ;
#39 = CIRCLE ( 'NONE', #10, 4.000000000000000000 ) ;
#40 = VECTOR ( 'NONE', #181, 1000.000000000000000 ) ;
#41 = ORIENTED_EDGE ( 'NONE', *, *, #239, .F. ) ;
#42 = CARTESIAN_POINT ( 'NONE',  ( 0.0000000000000000000, 7.000000000000000000, -4.000000000000000000 ) ) ;
#43 = DIRECTION ( 'NONE',  ( 0.0000000000000000000, 0.0000000000000000000, -1.000000000000000000 ) ) ;
#44 = CIRCLE ( 'NONE', #93, 7.000000000000000000 ) ;
#45 = EDGE_LOOP ( 'NONE', ( #30, #73 ) ) ;
#46 = CARTESIAN_POINT ( 'NONE',  ( 0.0000000000000000000, 7.000000000000000000, -7.000000000000000000 ) ) ;
#47 = SURFACE_STYLE_FILL_AREA ( #90 ) ;
#48 = DIRECTION ( 'NONE',  ( 0.0000000000000000000, 0.0000000000000000000, -1.000000000000000000 ) ) ;
#49 = AXIS2_PLACEMENT_3D ( 'NONE', #119, #89, #87 ) ;
#50 = VERTEX_POINT ( 'NONE', #53 ) ;
#51 = EDGE_LOOP ( 'NONE', ( #15, #54 ) ) ;
#52 = CARTESIAN_POINT ( 'NONE',  ( 0.0000000000000000000, 5.400000000000000400, -7.000000000000000900 ) ) ;
#53 = CARTESIAN_POINT ( 'NONE',  ( 8.572527594031474200E-016, 5.400000000000000400, 7.000000000000000900 ) ) ;
#54 = ORIENTED_EDGE ( 'NONE', *, *, #211, .T. ) ;
#55 =( NAMED_UNIT ( * ) SI_UNIT ( $, .STERADIAN. ) SOLID_ANGLE_UNIT ( ) );
#56 =( NAMED_UNIT ( * ) PLANE_ANGLE_UNIT ( ) SI_UNIT ( $, .RADIAN. ) );
#57 = SURFACE_SIDE_STYLE ('',( #148 ) ) ;
#58 =( LENGTH_UNIT ( ) NAMED_UNIT ( * ) SI_UNIT ( .MILLI., .METRE. ) );
#59 = EDGE_CURVE ( 'NONE', #208, #226, #138, .T. ) ;
#60 = SURFACE_STYLE_USAGE ( .BOTH. , #57 ) ;
#61 = FILL_AREA_STYLE ('',( #210 ) ) ;
#62 = ORIENTED_EDGE ( 'NONE', *, *, #240, .F. ) ;
#63 = ORIENTED_EDGE ( 'NONE', *, *, #228, .F. ) ;
#64 = LINE ( 'NONE', #212, #109 ) ;
#65 = VECTOR ( 'NONE', #157, 1000.000000000000000 ) ;
#66 = VERTEX_POINT ( 'NONE', #46 ) ;
#67 = VECTOR ( 'NONE', #177, 1000.000000000000000 ) ;
#68 = COLOUR_RGB ( '',1.000000000000000000, 1.000000000000000000, 0.5019607843137254800 ) ;
#69 = VERTEX_POINT ( 'NONE', #42 ) ;
#70 = ORIENTED_EDGE ( 'NONE', *, *, #59, .T. ) ;
#71 = ORIENTED_EDGE ( 'NONE', *, *, #236, .T. ) ;
#72 = CARTESIAN_POINT ( 'NONE',  ( 0.0000000000000000000, 4.251181187979603400E-017, 0.0000000000000000000 ) ) ;
#73 = ORIENTED_EDGE ( 'NONE', *, *, #248, .T. ) ;
#74 = CYLINDRICAL_SURFACE ( 'NONE', #167, 7.000000000000000900 ) ;
#75 = FACE_OUTER_BOUND ( 'NONE', #86, .T. ) ;
#76 = ORIENTED_EDGE ( 'NONE', *, *, #240, .T. ) ;
#77 = ORIENTED_EDGE ( 'NONE', *, *, #216, .F. ) ;
#78 = DIRECTION ( 'NONE',  ( 0.0000000000000000000, 0.0000000000000000000, -1.000000000000000000 ) ) ;
#79 = ORIENTED_EDGE ( 'NONE', *, *, #236, .F. ) ;
#80 =( LENGTH_UNIT ( ) NAMED_UNIT ( * ) SI_UNIT ( .MILLI., .METRE. ) );
#81 = EDGE_LOOP ( 'NONE', ( #21, #20, #70, #62 ) ) ;
#82 = FACE_OUTER_BOUND ( 'NONE', #117, .T. ) ;
#83 = APPLICATION_PROTOCOL_DEFINITION ( 'draft international standard', 'automotive_design', 1998, #84 ) ;
#84 = APPLICATION_CONTEXT ( 'automotive_design' ) ;
#85 = PRODUCT_CONTEXT ( 'NONE', #104, 'mechanical' ) ;
#86 = EDGE_LOOP ( 'NONE', ( #41, #238, #71, #222 ) ) ;
#87 = DIRECTION ( 'NONE',  ( 1.000000000000000000, 0.0000000000000000000, 0.0000000000000000000 ) ) ;
#88 = VERTEX_POINT ( 'NONE', #98 ) ;
#89 = DIRECTION ( 'NONE',  ( 0.0000000000000000000, 0.0000000000000000000, 1.000000000000000000 ) ) ;
#90 = FILL_AREA_STYLE ('',( #115 ) ) ;
#91 = FACE_OUTER_BOUND ( 'NONE', #81, .T. ) ;
#92 = SURFACE_STYLE_USAGE ( .BOTH. , #112 ) ;
#93 = AXIS2_PLACEMENT_3D ( 'NONE', #209, #129, #78 ) ;
#94 = CARTESIAN_POINT ( 'NONE',  ( 0.0000000000000000000, 4.251181187979603400E-017, 5.753311767921998900 ) ) ;
#95 = ORIENTED_EDGE ( 'NONE', *, *, #216, .T. ) ;
#96 = ORIENTED_EDGE ( 'NONE', *, *, #250, .F. ) ;
#97 =( NAMED_UNIT ( * ) SI_UNIT ( $, .STERADIAN. ) SOLID_ANGLE_UNIT ( ) );
#98 = CARTESIAN_POINT ( 'NONE',  ( 4.898587196589412800E-016, 7.000000000000000000, 4.000000000000000000 ) ) ;
#99 = PRODUCT_RELATED_PRODUCT_CATEGORY ( 'part', '', ( #205 ) ) ;
#100 =( NAMED_UNIT ( * ) PLANE_ANGLE_UNIT ( ) SI_UNIT ( $, .RADIAN. ) );
#101 = VECTOR ( 'NONE', #150, 1000.000000000000000 ) ;
#102 = CARTESIAN_POINT ( 'NONE',  ( 0.0000000000000000000, 7.000000000000000000, 0.0000000000000000000 ) ) ;
#103 = PRODUCT_DEFINITION_FORMATION_WITH_SPECIFIED_SOURCE ( 'ANY', '', #205, .NOT_KNOWN. ) ;
#104 = APPLICATION_CONTEXT ( 'automotive_design' ) ;
#105 = FACE_OUTER_BOUND ( 'NONE', #161, .T. ) ;
#106 = APPLICATION_PROTOCOL_DEFINITION ( 'draft international standard', 'automotive_design', 1998, #104 ) ;
#107 = DIRECTION ( 'NONE',  ( 0.0000000000000000000, 0.0000000000000000000, -1.000000000000000000 ) ) ;
#108 =( NAMED_UNIT ( * ) SI_UNIT ( $, .STERADIAN. ) SOLID_ANGLE_UNIT ( ) );
#109 = VECTOR ( 'NONE', #198, 1000.000000000000000 ) ;
#110 = CIRCLE ( 'NONE', #151, 5.753311767921998900 ) ;
#111 = CIRCLE ( 'NONE', #176, 7.000000000000000000 ) ;
#112 = SURFACE_SIDE_STYLE ('',( #47 ) ) ;
#113 =( NAMED_UNIT ( * ) PLANE_ANGLE_UNIT ( ) SI_UNIT ( $, .RADIAN. ) );
#114 =( LENGTH_UNIT ( ) NAMED_UNIT ( * ) SI_UNIT ( .MILLI., .METRE. ) );
#115 = FILL_AREA_STYLE_COLOUR ( '', #232 ) ;
#116 = SHAPE_DEFINITION_REPRESENTATION ( #8, #237 ) ;
#117 = EDGE_LOOP ( 'NONE', ( #168, #258, #95, #5 ) ) ;
#118 = PRODUCT_DEFINITION ( 'UNKNOWN', '', #103, #16 ) ;
#119 = CARTESIAN_POINT ( 'NONE',  ( 0.0000000000000000000, 0.0000000000000000000, 0.0000000000000000000 ) ) ;
#120 = DIRECTION ( 'NONE',  ( 0.0000000000000000000, 0.0000000000000000000, -1.000000000000000000 ) ) ;
#121 = VERTEX_POINT ( 'NONE', #23 ) ;
#122 = CIRCLE ( 'NONE', #153, 7.000000000000000900 ) ;
#123 =( GEOMETRIC_REPRESENTATION_CONTEXT ( 3 ) GLOBAL_UNCERTAINTY_ASSIGNED_CONTEXT ( ( #234 ) ) GLOBAL_UNIT_ASSIGNED_CONTEXT ( ( #80, #100, #97 ) ) REPRESENTATION_CONTEXT ( 'NONE', 'WORKASPACE' ) );
#124 = DIRECTION ( 'NONE',  ( -0.0000000000000000000, -1.000000000000000000, -0.0000000000000000000 ) ) ;
#125 = CARTESIAN_POINT ( 'NONE',  ( 0.0000000000000000000, 5.400000000000000400, 0.0000000000000000000 ) ) ;
#126 = STYLED_ITEM ( 'NONE', ( #201 ), #237 ) ;
#127 = CARTESIAN_POINT ( 'NONE',  ( 0.0000000000000000000, 4.251181187979603400E-017, 0.0000000000000000000 ) ) ;
#128 = CIRCLE ( 'NONE', #164, 4.000000000000000000 ) ;
#129 = DIRECTION ( 'NONE',  ( -0.0000000000000000000, -1.000000000000000000, -0.0000000000000000000 ) ) ;
#130 = DIRECTION ( 'NONE',  ( -0.0000000000000000000, -1.000000000000000000, -0.0000000000000000000 ) ) ;
#131 = MECHANICAL_DESIGN_GEOMETRIC_PRESENTATION_REPRESENTATION (  '', ( #126 ), #123 ) ;
#132 =( GEOMETRIC_REPRESENTATION_CONTEXT ( 3 ) GLOBAL_UNCERTAINTY_ASSIGNED_CONTEXT ( ( #35 ) ) GLOBAL_UNIT_ASSIGNED_CONTEXT ( ( #114, #113, #108 ) ) REPRESENTATION_CONTEXT ( 'NONE', 'WORKASPACE' ) );
#133 = DIRECTION ( 'NONE',  ( 0.0000000000000000000, 0.0000000000000000000, -1.000000000000000000 ) ) ;
#134 = FACE_OUTER_BOUND ( 'NONE', #154, .T. ) ;
#135 = CARTESIAN_POINT ( 'NONE',  ( 0.0000000000000000000, 4.251181187979603400E-017, 0.0000000000000000000 ) ) ;
#136 = VERTEX_POINT ( 'NONE', #52 ) ;
#137 = ADVANCED_FACE ( 'NONE', ( #207, #2 ), #264, .T. ) ;
#138 = CIRCLE ( 'NONE', #193, 4.000000000000000000 ) ;
#139 = ADVANCED_FACE ( 'NONE', ( #158 ), #192, .T. ) ;
#140 = AXIS2_PLACEMENT_3D ( 'NONE', #125, #124, #107 ) ;
#141 = ORIENTED_EDGE ( 'NONE', *, *, #225, .T. ) ;
#142 = ADVANCED_FACE ( 'NONE', ( #91 ), #191, .F. ) ;
#143 = ADVANCED_FACE ( 'NONE', ( #262, #180 ), #263, .T. ) ;
#144 = AXIS2_PLACEMENT_3D ( 'NONE', #127, #130, #120 ) ;
#145 = DIRECTION ( 'NONE',  ( -0.0000000000000000000, -1.000000000000000000, -0.0000000000000000000 ) ) ;
#146 = ADVANCED_FACE ( 'NONE', ( #82 ), #22, .T. ) ;
#147 = ADVANCED_FACE ( 'NONE', ( #105 ), #36, .F. ) ;
#148 = SURFACE_STYLE_FILL_AREA ( #61 ) ;
#149 = DIRECTION ( 'NONE',  ( 0.0000000000000000000, 0.0000000000000000000, -1.000000000000000000 ) ) ;
#150 = DIRECTION ( 'NONE',  ( -0.0000000000000000000, -1.000000000000000000, -0.0000000000000000000 ) ) ;
#151 = AXIS2_PLACEMENT_3D ( 'NONE', #135, #156, #133 ) ;
#152 = ADVANCED_FACE ( 'NONE', ( #75 ), #257, .T. ) ;
#153 = AXIS2_PLACEMENT_3D ( 'NONE', #165, #145, #149 ) ;
#154 = EDGE_LOOP ( 'NONE', ( #6, #179, #96, #77 ) ) ;
#155 = CARTESIAN_POINT ( 'NONE',  ( 8.572527594031473200E-016, 7.000000000000000000, 7.000000000000000000 ) ) ;
#156 = DIRECTION ( 'NONE',  ( -0.0000000000000000000, -1.000000000000000000, -0.0000000000000000000 ) ) ;
#157 = DIRECTION ( 'NONE',  ( 2.754855886670284000E-017, 0.9743700647852368000, -0.2249510543438583100 ) ) ;
#158 = FACE_OUTER_BOUND ( 'NONE', #195, .T. ) ;
#159 = ADVANCED_FACE ( 'NONE', ( #134 ), #74, .T. ) ;
#160 = CARTESIAN_POINT ( 'NONE',  ( 7.045774841082476300E-016, 4.251181187979603400E-017, -5.753311767921998900 ) ) ;
#161 = EDGE_LOOP ( 'NONE', ( #27, #63, #76, #141 ) ) ;
#162 = AXIS2_PLACEMENT_3D ( 'NONE', #182, #166, #169 ) ;
#163 = DIRECTION ( 'NONE',  ( 0.0000000000000000000, 0.0000000000000000000, 1.000000000000000000 ) ) ;
#164 = AXIS2_PLACEMENT_3D ( 'NONE', #185, #175, #184 ) ;
#165 = CARTESIAN_POINT ( 'NONE',  ( 0.0000000000000000000, 5.400000000000000400, 0.0000000000000000000 ) ) ;
#166 = DIRECTION ( 'NONE',  ( -0.0000000000000000000, -1.000000000000000000, -0.0000000000000000000 ) ) ;
#167 = AXIS2_PLACEMENT_3D ( 'NONE', #224, #244, #249 ) ;
#168 = ORIENTED_EDGE ( 'NONE', *, *, #217, .F. ) ;
#169 = DIRECTION ( 'NONE',  ( 0.0000000000000000000, 0.0000000000000000000, -1.000000000000000000 ) ) ;
#170 = EDGE_LOOP ( 'NONE', ( #28, #227 ) ) ;
#171 = CARTESIAN_POINT ( 'NONE',  ( 0.0000000000000000000, 0.0000000000000000000, -4.000000000000000000 ) ) ;
#172 = AXIS2_PLACEMENT_3D ( 'NONE', #259, #230, #254 ) ;
#173 = CARTESIAN_POINT ( 'NONE',  ( 0.0000000000000000000, 4.251181187979603400E-017, 5.753311767921998900 ) ) ;
#174 = AXIS2_PLACEMENT_3D ( 'NONE', #246, #213, #43 ) ;
#175 = DIRECTION ( 'NONE',  ( -0.0000000000000000000, -1.000000000000000000, -0.0000000000000000000 ) ) ;
#176 = AXIS2_PLACEMENT_3D ( 'NONE', #102, #220, #219 ) ;
#177 = DIRECTION ( 'NONE',  ( -0.0000000000000000000, -1.000000000000000000, -0.0000000000000000000 ) ) ;
#178 = AXIS2_PLACEMENT_3D ( 'NONE', #256, #261, #48 ) ;
#179 = ORIENTED_EDGE ( 'NONE', *, *, #217, .T. ) ;
#180 = FACE_BOUND ( 'NONE', #253, .T. ) ;
#181 = DIRECTION ( 'NONE',  ( 0.0000000000000000000, 0.9743700647852368000, 0.2249510543438583100 ) ) ;
#182 = CARTESIAN_POINT ( 'NONE',  ( 0.0000000000000000000, 7.000000000000000000, 0.0000000000000000000 ) ) ;
#183 = CIRCLE ( 'NONE', #162, 4.000000000000000000 ) ;
#184 = DIRECTION ( 'NONE',  ( 0.0000000000000000000, 0.0000000000000000000, -1.000000000000000000 ) ) ;
#185 = CARTESIAN_POINT ( 'NONE',  ( 0.0000000000000000000, 1.522832031440369500E-015, 0.0000000000000000000 ) ) ;
#186 = AXIS2_PLACEMENT_3D ( 'NONE', #252, #251, #255 ) ;
#187 = DIRECTION ( 'NONE',  ( 0.0000000000000000000, -0.0000000000000000000, 1.000000000000000000 ) ) ;
#188 = AXIS2_PLACEMENT_3D ( 'NONE', #7, #229, #187 ) ;
#189 = AXIS2_PLACEMENT_3D ( 'NONE', #72, #12, #163 ) ;
#190 = CARTESIAN_POINT ( 'NONE',  ( 0.0000000000000000000, 7.000000000000000000, 0.0000000000000000000 ) ) ;
#191 = CYLINDRICAL_SURFACE ( 'NONE', #178, 4.000000000000000000 ) ;
#192 = CONICAL_SURFACE ( 'NONE', #189, 5.753311767921998900, 0.2268928027592559400 ) ;
#193 = AXIS2_PLACEMENT_3D ( 'NONE', #18, #31, #24 ) ;
#194 =( GEOMETRIC_REPRESENTATION_CONTEXT ( 3 ) GLOBAL_UNCERTAINTY_ASSIGNED_CONTEXT ( ( #197 ) ) GLOBAL_UNIT_ASSIGNED_CONTEXT ( ( #58, #56, #55 ) ) REPRESENTATION_CONTEXT ( 'NONE', 'WORKASPACE' ) );
#195 = EDGE_LOOP ( 'NONE', ( #33, #19, #260, #79 ) ) ;
#196 = PRESENTATION_STYLE_ASSIGNMENT (( #60 ) ) ;
#197 = UNCERTAINTY_MEASURE_WITH_UNIT (LENGTH_MEASURE( 1.000000000000000100E-005 ), #58, 'distance_accuracy_value', 'NONE');
#198 = DIRECTION ( 'NONE',  ( -0.0000000000000000000, -1.000000000000000000, -0.0000000000000000000 ) ) ;
#199 = MECHANICAL_DESIGN_GEOMETRIC_PRESENTATION_REPRESENTATION (  '', ( #206 ), #194 ) ;
#200 = CARTESIAN_POINT ( 'NONE',  ( 4.898587196589412800E-016, 0.0000000000000000000, 4.000000000000000000 ) ) ;
#201 = PRESENTATION_STYLE_ASSIGNMENT (( #92 ) ) ;
#202 = LINE ( 'NONE', #200, #67 ) ;
#203 = PRESENTATION_LAYER_ASSIGNMENT (  '', '', ( #206 ) ) ;
#204 = CARTESIAN_POINT ( 'NONE',  ( 0.0000000000000000000, 1.522832031440369500E-015, -4.000000000000000000 ) ) ;
#205 = PRODUCT ( 'Conic', 'Conic', '', ( #85 ) ) ;
#206 = STYLED_ITEM ( 'NONE', ( #196 ), #4 ) ;
#207 = FACE_BOUND ( 'NONE', #51, .T. ) ;
#208 = VERTEX_POINT ( 'NONE', #241 ) ;
#209 = CARTESIAN_POINT ( 'NONE',  ( 0.0000000000000000000, 7.000000000000000000, 0.0000000000000000000 ) ) ;
#210 = FILL_AREA_STYLE_COLOUR ( '', #68 ) ;
#211 = EDGE_CURVE ( 'NONE', #88, #69, #39, .T. ) ;
#212 = CARTESIAN_POINT ( 'NONE',  ( 8.572527594031474200E-016, 0.0000000000000000000, 7.000000000000000900 ) ) ;
#213 = DIRECTION ( 'NONE',  ( -0.0000000000000000000, -1.000000000000000000, -0.0000000000000000000 ) ) ;
#214 = EDGE_CURVE ( 'NONE', #66, #243, #111, .T. ) ;
#215 = DIRECTION ( 'NONE',  ( -0.0000000000000000000, -1.000000000000000000, -0.0000000000000000000 ) ) ;
#216 = EDGE_CURVE ( 'NONE', #66, #136, #9, .T. ) ;
#217 = EDGE_CURVE ( 'NONE', #243, #50, #64, .T. ) ;
#218 = EDGE_CURVE ( 'NONE', #88, #208, #202, .T. ) ;
#219 = DIRECTION ( 'NONE',  ( 0.0000000000000000000, 0.0000000000000000000, -1.000000000000000000 ) ) ;
#220 = DIRECTION ( 'NONE',  ( -0.0000000000000000000, -1.000000000000000000, -0.0000000000000000000 ) ) ;
#221 = CARTESIAN_POINT ( 'NONE',  ( 0.0000000000000000000, 0.0000000000000000000, -7.000000000000000900 ) ) ;
#222 = ORIENTED_EDGE ( 'NONE', *, *, #235, .T. ) ;
#223 = DIRECTION ( 'NONE',  ( 0.0000000000000000000, 0.0000000000000000000, -1.000000000000000000 ) ) ;
#224 = CARTESIAN_POINT ( 'NONE',  ( 0.0000000000000000000, 0.0000000000000000000, 0.0000000000000000000 ) ) ;
#225 = EDGE_CURVE ( 'NONE', #226, #208, #128, .T. ) ;
#226 = VERTEX_POINT ( 'NONE', #204 ) ;
#227 = ORIENTED_EDGE ( 'NONE', *, *, #3, .F. ) ;
#228 = EDGE_CURVE ( 'NONE', #69, #88, #183, .T. ) ;
#229 = DIRECTION ( 'NONE',  ( 0.0000000000000000000, 1.000000000000000000, 0.0000000000000000000 ) ) ;
#230 = DIRECTION ( 'NONE',  ( -0.0000000000000000000, -1.000000000000000000, -0.0000000000000000000 ) ) ;
#231 = DIRECTION ( 'NONE',  ( 0.0000000000000000000, -1.000000000000000000, -0.0000000000000000000 ) ) ;
#232 = COLOUR_RGB ( '',1.000000000000000000, 1.000000000000000000, 0.5019607843137254800 ) ;
#233 = CIRCLE ( 'NONE', #144, 5.753311767921998900 ) ;
#234 = UNCERTAINTY_MEASURE_WITH_UNIT (LENGTH_MEASURE( 1.000000000000000100E-005 ), #80, 'distance_accuracy_value', 'NONE');
#235 = EDGE_CURVE ( 'NONE', #50, #136, #122, .T. ) ;
#236 = EDGE_CURVE ( 'NONE', #11, #50, #38, .T. ) ;
#237 = ADVANCED_BREP_SHAPE_REPRESENTATION ( 'Conic', ( #4, #49 ), #132 ) ;
#238 = ORIENTED_EDGE ( 'NONE', *, *, #247, .F. ) ;
#239 = EDGE_CURVE ( 'NONE', #121, #136, #25, .T. ) ;
#240 = EDGE_CURVE ( 'NONE', #69, #226, #1, .T. ) ;
#241 = CARTESIAN_POINT ( 'NONE',  ( 4.898587196589412800E-016, 1.522832031440369500E-015, 4.000000000000000000 ) ) ;
#242 = DIRECTION ( 'NONE',  ( -0.0000000000000000000, -1.000000000000000000, -0.0000000000000000000 ) ) ;
#243 = VERTEX_POINT ( 'NONE', #155 ) ;
#244 = DIRECTION ( 'NONE',  ( -0.0000000000000000000, -1.000000000000000000, -0.0000000000000000000 ) ) ;
#245 = CLOSED_SHELL ( 'NONE', ( #139, #159, #142, #143, #147, #137, #146, #152 ) ) ;
#246 = CARTESIAN_POINT ( 'NONE',  ( 0.0000000000000000000, 0.0000000000000000000, 0.0000000000000000000 ) ) ;
#247 = EDGE_CURVE ( 'NONE', #11, #121, #110, .T. ) ;
#248 = EDGE_CURVE ( 'NONE', #121, #11, #233, .T. ) ;
#249 = DIRECTION ( 'NONE',  ( 0.0000000000000000000, 0.0000000000000000000, -1.000000000000000000 ) ) ;
#250 = EDGE_CURVE ( 'NONE', #136, #50, #14, .T. ) ;
#251 = DIRECTION ( 'NONE',  ( 0.0000000000000000000, 1.000000000000000000, 0.0000000000000000000 ) ) ;
#252 = CARTESIAN_POINT ( 'NONE',  ( 0.0000000000000000000, 4.251181187979603400E-017, 0.0000000000000000000 ) ) ;
#253 = EDGE_LOOP ( 'NONE', ( #32, #26 ) ) ;
#254 = DIRECTION ( 'NONE',  ( 0.0000000000000000000, 0.0000000000000000000, -1.000000000000000000 ) ) ;
#255 = DIRECTION ( 'NONE',  ( 0.0000000000000000000, 0.0000000000000000000, 1.000000000000000000 ) ) ;
#256 = CARTESIAN_POINT ( 'NONE',  ( 0.0000000000000000000, 0.0000000000000000000, 0.0000000000000000000 ) ) ;
#257 = CONICAL_SURFACE ( 'NONE', #186, 5.753311767921998900, 0.2268928027592559400 ) ;
#258 = ORIENTED_EDGE ( 'NONE', *, *, #3, .T. ) ;
#259 = CARTESIAN_POINT ( 'NONE',  ( 0.0000000000000000000, 0.0000000000000000000, 0.0000000000000000000 ) ) ;
#260 = ORIENTED_EDGE ( 'NONE', *, *, #250, .T. ) ;
#261 = DIRECTION ( 'NONE',  ( -0.0000000000000000000, -1.000000000000000000, -0.0000000000000000000 ) ) ;
#262 = FACE_OUTER_BOUND ( 'NONE', #45, .T. ) ;
#263 = PLANE ( 'NONE',  #13 ) ;
#264 = PLANE ( 'NONE',  #188 ) ;
ENDSEC;
END-ISO-10303-21;
