ISO-10303-21;
HEADER;
/* Generated by software containing ST-Developer
 * from STEP Tools, Inc. (www.steptools.com) 
 */

FILE_DESCRIPTION(
/* description */ (''),
/* implementation_level */ '2;1');

FILE_NAME(
/* name */ 
'C:\\VAULT_LOCAL\\WORKSPACE\\05_GSE\\MGSE\\GSE-052-MGSE-Torsional Thru
st Balance V2\\Measurement subsystem\\Linear joint M6.stp',
/* time_stamp */ '2022-11-07T17:45:03+01:00',
/* author */ ('exolab-5mv6l'),
/* organization */ (''),
/* preprocessor_version */ 'ST-DEVELOPER v18.1',
/* originating_system */ 'Autodesk Inventor 2022',
/* authorisation */ '');

FILE_SCHEMA (('AUTOMOTIVE_DESIGN { 1 0 10303 214 3 1 1 }'));
ENDSEC;

DATA;
#10=MECHANICAL_DESIGN_GEOMETRIC_PRESENTATION_REPRESENTATION('',(#13),#332);
#11=SHAPE_REPRESENTATION_RELATIONSHIP('SRR','None',#339,#12);
#12=ADVANCED_BREP_SHAPE_REPRESENTATION('',(#14),#331);
#13=STYLED_ITEM('',(#348),#14);
#14=MANIFOLD_SOLID_BREP('Solide1',#191);
#15=FACE_BOUND('',#42,.T.);
#16=FACE_BOUND('',#44,.T.);
#17=CIRCLE('',#216,3.1);
#18=CIRCLE('',#217,3.1);
#19=CIRCLE('',#220,3.1);
#20=CIRCLE('',#221,3.1);
#21=CYLINDRICAL_SURFACE('',#215,3.1);
#22=CYLINDRICAL_SURFACE('',#219,3.1);
#23=FACE_OUTER_BOUND('',#33,.T.);
#24=FACE_OUTER_BOUND('',#34,.T.);
#25=FACE_OUTER_BOUND('',#35,.T.);
#26=FACE_OUTER_BOUND('',#36,.T.);
#27=FACE_OUTER_BOUND('',#37,.T.);
#28=FACE_OUTER_BOUND('',#38,.T.);
#29=FACE_OUTER_BOUND('',#39,.T.);
#30=FACE_OUTER_BOUND('',#40,.T.);
#31=FACE_OUTER_BOUND('',#41,.T.);
#32=FACE_OUTER_BOUND('',#43,.T.);
#33=EDGE_LOOP('',(#125,#126,#127,#128));
#34=EDGE_LOOP('',(#129,#130,#131,#132));
#35=EDGE_LOOP('',(#133,#134,#135,#136));
#36=EDGE_LOOP('',(#137,#138,#139,#140));
#37=EDGE_LOOP('',(#141,#142,#143,#144));
#38=EDGE_LOOP('',(#145,#146,#147,#148));
#39=EDGE_LOOP('',(#149,#150,#151,#152));
#40=EDGE_LOOP('',(#153,#154,#155,#156));
#41=EDGE_LOOP('',(#157,#158,#159,#160));
#42=EDGE_LOOP('',(#161,#162,#163,#164));
#43=EDGE_LOOP('',(#165,#166,#167,#168));
#44=EDGE_LOOP('',(#169,#170,#171,#172));
#45=LINE('',#282,#65);
#46=LINE('',#284,#66);
#47=LINE('',#286,#67);
#48=LINE('',#287,#68);
#49=LINE('',#293,#69);
#50=LINE('',#296,#70);
#51=LINE('',#298,#71);
#52=LINE('',#299,#72);
#53=LINE('',#306,#73);
#54=LINE('',#308,#74);
#55=LINE('',#310,#75);
#56=LINE('',#311,#76);
#57=LINE('',#314,#77);
#58=LINE('',#316,#78);
#59=LINE('',#317,#79);
#60=LINE('',#320,#80);
#61=LINE('',#322,#81);
#62=LINE('',#323,#82);
#63=LINE('',#325,#83);
#64=LINE('',#326,#84);
#65=VECTOR('',#232,10.);
#66=VECTOR('',#233,10.);
#67=VECTOR('',#234,10.);
#68=VECTOR('',#235,10.);
#69=VECTOR('',#242,10.);
#70=VECTOR('',#245,10.);
#71=VECTOR('',#246,10.);
#72=VECTOR('',#247,10.);
#73=VECTOR('',#256,10.);
#74=VECTOR('',#257,10.);
#75=VECTOR('',#258,10.);
#76=VECTOR('',#259,10.);
#77=VECTOR('',#262,10.);
#78=VECTOR('',#263,10.);
#79=VECTOR('',#264,10.);
#80=VECTOR('',#267,10.);
#81=VECTOR('',#268,10.);
#82=VECTOR('',#269,10.);
#83=VECTOR('',#272,10.);
#84=VECTOR('',#273,10.);
#85=VERTEX_POINT('',#280);
#86=VERTEX_POINT('',#281);
#87=VERTEX_POINT('',#283);
#88=VERTEX_POINT('',#285);
#89=VERTEX_POINT('',#289);
#90=VERTEX_POINT('',#291);
#91=VERTEX_POINT('',#295);
#92=VERTEX_POINT('',#297);
#93=VERTEX_POINT('',#304);
#94=VERTEX_POINT('',#305);
#95=VERTEX_POINT('',#307);
#96=VERTEX_POINT('',#309);
#97=VERTEX_POINT('',#313);
#98=VERTEX_POINT('',#315);
#99=VERTEX_POINT('',#319);
#100=VERTEX_POINT('',#321);
#101=EDGE_CURVE('',#85,#86,#45,.T.);
#102=EDGE_CURVE('',#87,#85,#46,.T.);
#103=EDGE_CURVE('',#88,#87,#47,.T.);
#104=EDGE_CURVE('',#88,#86,#48,.T.);
#105=EDGE_CURVE('',#86,#89,#17,.T.);
#106=EDGE_CURVE('',#90,#88,#18,.T.);
#107=EDGE_CURVE('',#90,#89,#49,.T.);
#108=EDGE_CURVE('',#89,#91,#50,.T.);
#109=EDGE_CURVE('',#92,#90,#51,.T.);
#110=EDGE_CURVE('',#92,#91,#52,.T.);
#111=EDGE_CURVE('',#91,#85,#19,.T.);
#112=EDGE_CURVE('',#87,#92,#20,.T.);
#113=EDGE_CURVE('',#93,#94,#53,.T.);
#114=EDGE_CURVE('',#94,#95,#54,.T.);
#115=EDGE_CURVE('',#96,#95,#55,.T.);
#116=EDGE_CURVE('',#93,#96,#56,.T.);
#117=EDGE_CURVE('',#97,#93,#57,.T.);
#118=EDGE_CURVE('',#98,#96,#58,.T.);
#119=EDGE_CURVE('',#97,#98,#59,.T.);
#120=EDGE_CURVE('',#99,#97,#60,.T.);
#121=EDGE_CURVE('',#100,#98,#61,.T.);
#122=EDGE_CURVE('',#99,#100,#62,.T.);
#123=EDGE_CURVE('',#94,#99,#63,.T.);
#124=EDGE_CURVE('',#95,#100,#64,.T.);
#125=ORIENTED_EDGE('',*,*,#101,.F.);
#126=ORIENTED_EDGE('',*,*,#102,.F.);
#127=ORIENTED_EDGE('',*,*,#103,.F.);
#128=ORIENTED_EDGE('',*,*,#104,.T.);
#129=ORIENTED_EDGE('',*,*,#105,.F.);
#130=ORIENTED_EDGE('',*,*,#104,.F.);
#131=ORIENTED_EDGE('',*,*,#106,.F.);
#132=ORIENTED_EDGE('',*,*,#107,.T.);
#133=ORIENTED_EDGE('',*,*,#108,.F.);
#134=ORIENTED_EDGE('',*,*,#107,.F.);
#135=ORIENTED_EDGE('',*,*,#109,.F.);
#136=ORIENTED_EDGE('',*,*,#110,.T.);
#137=ORIENTED_EDGE('',*,*,#111,.F.);
#138=ORIENTED_EDGE('',*,*,#110,.F.);
#139=ORIENTED_EDGE('',*,*,#112,.F.);
#140=ORIENTED_EDGE('',*,*,#102,.T.);
#141=ORIENTED_EDGE('',*,*,#113,.T.);
#142=ORIENTED_EDGE('',*,*,#114,.T.);
#143=ORIENTED_EDGE('',*,*,#115,.F.);
#144=ORIENTED_EDGE('',*,*,#116,.F.);
#145=ORIENTED_EDGE('',*,*,#117,.T.);
#146=ORIENTED_EDGE('',*,*,#116,.T.);
#147=ORIENTED_EDGE('',*,*,#118,.F.);
#148=ORIENTED_EDGE('',*,*,#119,.F.);
#149=ORIENTED_EDGE('',*,*,#120,.T.);
#150=ORIENTED_EDGE('',*,*,#119,.T.);
#151=ORIENTED_EDGE('',*,*,#121,.F.);
#152=ORIENTED_EDGE('',*,*,#122,.F.);
#153=ORIENTED_EDGE('',*,*,#123,.T.);
#154=ORIENTED_EDGE('',*,*,#122,.T.);
#155=ORIENTED_EDGE('',*,*,#124,.F.);
#156=ORIENTED_EDGE('',*,*,#114,.F.);
#157=ORIENTED_EDGE('',*,*,#124,.T.);
#158=ORIENTED_EDGE('',*,*,#121,.T.);
#159=ORIENTED_EDGE('',*,*,#118,.T.);
#160=ORIENTED_EDGE('',*,*,#115,.T.);
#161=ORIENTED_EDGE('',*,*,#103,.T.);
#162=ORIENTED_EDGE('',*,*,#112,.T.);
#163=ORIENTED_EDGE('',*,*,#109,.T.);
#164=ORIENTED_EDGE('',*,*,#106,.T.);
#165=ORIENTED_EDGE('',*,*,#123,.F.);
#166=ORIENTED_EDGE('',*,*,#113,.F.);
#167=ORIENTED_EDGE('',*,*,#117,.F.);
#168=ORIENTED_EDGE('',*,*,#120,.F.);
#169=ORIENTED_EDGE('',*,*,#101,.T.);
#170=ORIENTED_EDGE('',*,*,#105,.T.);
#171=ORIENTED_EDGE('',*,*,#108,.T.);
#172=ORIENTED_EDGE('',*,*,#111,.T.);
#173=PLANE('',#214);
#174=PLANE('',#218);
#175=PLANE('',#222);
#176=PLANE('',#223);
#177=PLANE('',#224);
#178=PLANE('',#225);
#179=PLANE('',#226);
#180=PLANE('',#227);
#181=ADVANCED_FACE('',(#23),#173,.F.);
#182=ADVANCED_FACE('',(#24),#21,.F.);
#183=ADVANCED_FACE('',(#25),#174,.F.);
#184=ADVANCED_FACE('',(#26),#22,.F.);
#185=ADVANCED_FACE('',(#27),#175,.T.);
#186=ADVANCED_FACE('',(#28),#176,.T.);
#187=ADVANCED_FACE('',(#29),#177,.T.);
#188=ADVANCED_FACE('',(#30),#178,.T.);
#189=ADVANCED_FACE('',(#31,#15),#179,.T.);
#190=ADVANCED_FACE('',(#32,#16),#180,.F.);
#191=CLOSED_SHELL('',(#181,#182,#183,#184,#185,#186,#187,#188,#189,#190));
#192=DERIVED_UNIT_ELEMENT(#195,1.);
#193=DERIVED_UNIT_ELEMENT(#334,-3.);
#194=DIMENSIONAL_EXPONENTS(1.,0.,0.,0.,0.,0.,0.);
#195=(
CONVERSION_BASED_UNIT('gram',#197)
MASS_UNIT()
NAMED_UNIT(#194)
);
#196=(
MASS_UNIT()
NAMED_UNIT(*)
SI_UNIT(.KILO.,.GRAM.)
);
#197=MASS_MEASURE_WITH_UNIT(MASS_MEASURE(0.001),#196);
#198=DERIVED_UNIT((#192,#193));
#199=MEASURE_REPRESENTATION_ITEM('density measure',
POSITIVE_RATIO_MEASURE(2.7),#198);
#200=PROPERTY_DEFINITION_REPRESENTATION(#205,#202);
#201=PROPERTY_DEFINITION_REPRESENTATION(#206,#203);
#202=REPRESENTATION('material name',(#204),#331);
#203=REPRESENTATION('density',(#199),#331);
#204=DESCRIPTIVE_REPRESENTATION_ITEM('Aluminum 6061-T6',
'Aluminum 6061-T6');
#205=PROPERTY_DEFINITION('material property','material name',#341);
#206=PROPERTY_DEFINITION('material property','density of part',#341);
#207=DATE_TIME_ROLE('creation_date');
#208=APPLIED_DATE_AND_TIME_ASSIGNMENT(#209,#207,(#341));
#209=DATE_AND_TIME(#210,#211);
#210=CALENDAR_DATE(2022,4,11);
#211=LOCAL_TIME(0,0,0.,#212);
#212=COORDINATED_UNIVERSAL_TIME_OFFSET(0,0,.BEHIND.);
#213=AXIS2_PLACEMENT_3D('placement',#278,#228,#229);
#214=AXIS2_PLACEMENT_3D('',#279,#230,#231);
#215=AXIS2_PLACEMENT_3D('',#288,#236,#237);
#216=AXIS2_PLACEMENT_3D('',#290,#238,#239);
#217=AXIS2_PLACEMENT_3D('',#292,#240,#241);
#218=AXIS2_PLACEMENT_3D('',#294,#243,#244);
#219=AXIS2_PLACEMENT_3D('',#300,#248,#249);
#220=AXIS2_PLACEMENT_3D('',#301,#250,#251);
#221=AXIS2_PLACEMENT_3D('',#302,#252,#253);
#222=AXIS2_PLACEMENT_3D('',#303,#254,#255);
#223=AXIS2_PLACEMENT_3D('',#312,#260,#261);
#224=AXIS2_PLACEMENT_3D('',#318,#265,#266);
#225=AXIS2_PLACEMENT_3D('',#324,#270,#271);
#226=AXIS2_PLACEMENT_3D('',#327,#274,#275);
#227=AXIS2_PLACEMENT_3D('',#328,#276,#277);
#228=DIRECTION('axis',(0.,0.,1.));
#229=DIRECTION('refdir',(1.,0.,0.));
#230=DIRECTION('center_axis',(0.,-1.,0.));
#231=DIRECTION('ref_axis',(0.,0.,1.));
#232=DIRECTION('',(0.,0.,-1.));
#233=DIRECTION('',(-1.,0.,0.));
#234=DIRECTION('',(0.,0.,1.));
#235=DIRECTION('',(-1.,0.,0.));
#236=DIRECTION('center_axis',(-1.,0.,0.));
#237=DIRECTION('ref_axis',(0.,-1.,0.));
#238=DIRECTION('center_axis',(1.,0.,0.));
#239=DIRECTION('ref_axis',(0.,-1.,0.));
#240=DIRECTION('center_axis',(-1.,0.,0.));
#241=DIRECTION('ref_axis',(0.,-1.,0.));
#242=DIRECTION('',(-1.,0.,0.));
#243=DIRECTION('center_axis',(0.,1.,2.46716227694479E-17));
#244=DIRECTION('ref_axis',(0.,2.46716227694479E-17,-1.));
#245=DIRECTION('',(0.,-2.46716227694479E-17,1.));
#246=DIRECTION('',(0.,2.46716227694479E-17,-1.));
#247=DIRECTION('',(-1.,0.,0.));
#248=DIRECTION('center_axis',(-1.,0.,0.));
#249=DIRECTION('ref_axis',(0.,1.,5.37204689334754E-16));
#250=DIRECTION('center_axis',(1.,0.,0.));
#251=DIRECTION('ref_axis',(0.,1.,5.37204689334754E-16));
#252=DIRECTION('center_axis',(-1.,0.,0.));
#253=DIRECTION('ref_axis',(0.,1.,5.37204689334754E-16));
#254=DIRECTION('center_axis',(0.,-1.,0.));
#255=DIRECTION('ref_axis',(0.,0.,-1.));
#256=DIRECTION('',(0.,0.,-1.));
#257=DIRECTION('',(1.,0.,0.));
#258=DIRECTION('',(0.,0.,-1.));
#259=DIRECTION('',(1.,0.,0.));
#260=DIRECTION('center_axis',(0.,0.,1.));
#261=DIRECTION('ref_axis',(0.,-1.,0.));
#262=DIRECTION('',(0.,-1.,0.));
#263=DIRECTION('',(0.,-1.,0.));
#264=DIRECTION('',(1.,0.,0.));
#265=DIRECTION('center_axis',(0.,1.,0.));
#266=DIRECTION('ref_axis',(0.,0.,1.));
#267=DIRECTION('',(0.,0.,1.));
#268=DIRECTION('',(0.,0.,1.));
#269=DIRECTION('',(1.,0.,0.));
#270=DIRECTION('center_axis',(0.,-1.77635683940025E-15,-1.));
#271=DIRECTION('ref_axis',(0.,1.,-1.77635683940025E-15));
#272=DIRECTION('',(0.,1.,-1.77635683940025E-15));
#273=DIRECTION('',(0.,1.,-1.77635683940025E-15));
#274=DIRECTION('center_axis',(1.,0.,0.));
#275=DIRECTION('ref_axis',(0.,0.,-1.));
#276=DIRECTION('center_axis',(1.,0.,0.));
#277=DIRECTION('ref_axis',(0.,0.,-1.));
#278=CARTESIAN_POINT('',(0.,0.,0.));
#279=CARTESIAN_POINT('Origin',(2.,1.9,-95.));
#280=CARTESIAN_POINT('',(0.,1.9,-5.));
#281=CARTESIAN_POINT('',(0.,1.9,-95.));
#282=CARTESIAN_POINT('',(0.,1.9,-72.5));
#283=CARTESIAN_POINT('',(2.,1.9,-5.));
#284=CARTESIAN_POINT('',(2.,1.9,-5.));
#285=CARTESIAN_POINT('',(2.,1.9,-95.));
#286=CARTESIAN_POINT('',(2.,1.9,-72.5));
#287=CARTESIAN_POINT('',(2.,1.9,-95.));
#288=CARTESIAN_POINT('Origin',(2.,5.,-95.));
#289=CARTESIAN_POINT('',(0.,8.1,-95.));
#290=CARTESIAN_POINT('Origin',(0.,5.,-95.));
#291=CARTESIAN_POINT('',(2.,8.1,-95.));
#292=CARTESIAN_POINT('Origin',(2.,5.,-95.));
#293=CARTESIAN_POINT('',(2.,8.1,-95.));
#294=CARTESIAN_POINT('Origin',(2.,8.1,-5.));
#295=CARTESIAN_POINT('',(0.,8.1,-5.));
#296=CARTESIAN_POINT('',(0.,8.1,-27.5));
#297=CARTESIAN_POINT('',(2.,8.1,-5.));
#298=CARTESIAN_POINT('',(2.,8.1,-27.5));
#299=CARTESIAN_POINT('',(2.,8.1,-5.));
#300=CARTESIAN_POINT('Origin',(2.,5.,-5.));
#301=CARTESIAN_POINT('Origin',(0.,5.,-5.));
#302=CARTESIAN_POINT('Origin',(2.,5.,-5.));
#303=CARTESIAN_POINT('Origin',(0.,0.,0.));
#304=CARTESIAN_POINT('',(0.,0.,0.));
#305=CARTESIAN_POINT('',(0.,0.,-100.));
#306=CARTESIAN_POINT('',(0.,0.,0.));
#307=CARTESIAN_POINT('',(2.,0.,-100.));
#308=CARTESIAN_POINT('',(0.,0.,-100.));
#309=CARTESIAN_POINT('',(2.,0.,0.));
#310=CARTESIAN_POINT('',(2.,0.,0.));
#311=CARTESIAN_POINT('',(0.,0.,0.));
#312=CARTESIAN_POINT('Origin',(0.,10.,0.));
#313=CARTESIAN_POINT('',(0.,10.,0.));
#314=CARTESIAN_POINT('',(0.,10.,0.));
#315=CARTESIAN_POINT('',(2.,10.,0.));
#316=CARTESIAN_POINT('',(2.,10.,0.));
#317=CARTESIAN_POINT('',(0.,10.,0.));
#318=CARTESIAN_POINT('Origin',(0.,10.,-100.));
#319=CARTESIAN_POINT('',(0.,10.,-100.));
#320=CARTESIAN_POINT('',(0.,10.,-100.));
#321=CARTESIAN_POINT('',(2.,10.,-100.));
#322=CARTESIAN_POINT('',(2.,10.,-100.));
#323=CARTESIAN_POINT('',(0.,10.,-100.));
#324=CARTESIAN_POINT('Origin',(0.,0.,-100.));
#325=CARTESIAN_POINT('',(0.,0.,-100.));
#326=CARTESIAN_POINT('',(2.,0.,-100.));
#327=CARTESIAN_POINT('Origin',(2.,5.,-50.));
#328=CARTESIAN_POINT('Origin',(0.,5.,-50.));
#329=UNCERTAINTY_MEASURE_WITH_UNIT(LENGTH_MEASURE(0.01),#333,
'DISTANCE_ACCURACY_VALUE',
'Maximum model space distance between geometric entities at asserted c
onnectivities');
#330=UNCERTAINTY_MEASURE_WITH_UNIT(LENGTH_MEASURE(0.01),#333,
'DISTANCE_ACCURACY_VALUE',
'Maximum model space distance between geometric entities at asserted c
onnectivities');
#331=(
GEOMETRIC_REPRESENTATION_CONTEXT(3)
GLOBAL_UNCERTAINTY_ASSIGNED_CONTEXT((#329))
GLOBAL_UNIT_ASSIGNED_CONTEXT((#333,#335,#336))
REPRESENTATION_CONTEXT('','3D')
);
#332=(
GEOMETRIC_REPRESENTATION_CONTEXT(3)
GLOBAL_UNCERTAINTY_ASSIGNED_CONTEXT((#330))
GLOBAL_UNIT_ASSIGNED_CONTEXT((#333,#335,#336))
REPRESENTATION_CONTEXT('','3D')
);
#333=(
LENGTH_UNIT()
NAMED_UNIT(*)
SI_UNIT(.MILLI.,.METRE.)
);
#334=(
LENGTH_UNIT()
NAMED_UNIT(*)
SI_UNIT(.CENTI.,.METRE.)
);
#335=(
NAMED_UNIT(*)
PLANE_ANGLE_UNIT()
SI_UNIT($,.RADIAN.)
);
#336=(
NAMED_UNIT(*)
SI_UNIT($,.STERADIAN.)
SOLID_ANGLE_UNIT()
);
#337=SHAPE_DEFINITION_REPRESENTATION(#338,#339);
#338=PRODUCT_DEFINITION_SHAPE('',$,#341);
#339=SHAPE_REPRESENTATION('',(#213),#331);
#340=PRODUCT_DEFINITION_CONTEXT('part definition',#345,'design');
#341=PRODUCT_DEFINITION('Linear joint M6','Linear joint M6',#342,#340);
#342=PRODUCT_DEFINITION_FORMATION('',$,#347);
#343=PRODUCT_RELATED_PRODUCT_CATEGORY('Linear joint M6',
'Linear joint M6',(#347));
#344=APPLICATION_PROTOCOL_DEFINITION('international standard',
'automotive_design',2009,#345);
#345=APPLICATION_CONTEXT(
'Core Data for Automotive Mechanical Design Process');
#346=PRODUCT_CONTEXT('part definition',#345,'mechanical');
#347=PRODUCT('Linear joint M6','Linear joint M6',$,(#346));
#348=PRESENTATION_STYLE_ASSIGNMENT((#349));
#349=SURFACE_STYLE_USAGE(.BOTH.,#352);
#350=SURFACE_STYLE_RENDERING_WITH_PROPERTIES($,#356,(#351));
#351=SURFACE_STYLE_TRANSPARENT(0.);
#352=SURFACE_SIDE_STYLE('',(#353,#350));
#353=SURFACE_STYLE_FILL_AREA(#354);
#354=FILL_AREA_STYLE('',(#355));
#355=FILL_AREA_STYLE_COLOUR('',#356);
#356=COLOUR_RGB('',0.996078431372549,0.996078431372549,1.);
ENDSEC;
END-ISO-10303-21;
