ISO-10303-21;
HEADER;
/* Generated by software containing ST-Developer
 * from STEP Tools, Inc. (www.steptools.com) 
 */

FILE_DESCRIPTION(
/* description */ (''),
/* implementation_level */ '2;1');

FILE_NAME(
/* name */ 'Support droite.step',
/* time_stamp */ '2022-11-24T23:05:03+01:00',
/* author */ (''),
/* organization */ (''),
/* preprocessor_version */ 'ST-DEVELOPER v19.2',
/* originating_system */ 'Autodesk Translation Framework v11.17.0.187',

/* authorisation */ '');

FILE_SCHEMA (('AUTOMOTIVE_DESIGN { 1 0 10303 214 3 1 1 }'));
ENDSEC;

DATA;
#10=MECHANICAL_DESIGN_GEOMETRIC_PRESENTATION_REPRESENTATION('',(#13),#549);
#11=SHAPE_REPRESENTATION_RELATIONSHIP('SRR','None',#556,#12);
#12=ADVANCED_BREP_SHAPE_REPRESENTATION('',(#14),#548);
#13=STYLED_ITEM('',(#565),#14);
#14=MANIFOLD_SOLID_BREP('Corps2',#329);
#15=FACE_BOUND('',#60,.T.);
#16=FACE_BOUND('',#61,.T.);
#17=FACE_BOUND('',#62,.T.);
#18=FACE_BOUND('',#70,.T.);
#19=FACE_BOUND('',#71,.T.);
#20=FACE_BOUND('',#72,.T.);
#21=FACE_BOUND('',#73,.T.);
#22=FACE_BOUND('',#74,.T.);
#23=FACE_BOUND('',#75,.T.);
#24=FACE_BOUND('',#77,.T.);
#25=FACE_BOUND('',#78,.T.);
#26=FACE_BOUND('',#79,.T.);
#27=PLANE('',#361);
#28=PLANE('',#362);
#29=PLANE('',#363);
#30=PLANE('',#364);
#31=PLANE('',#365);
#32=PLANE('',#366);
#33=PLANE('',#367);
#34=PLANE('',#368);
#35=PLANE('',#369);
#36=PLANE('',#370);
#37=FACE_OUTER_BOUND('',#53,.T.);
#38=FACE_OUTER_BOUND('',#54,.T.);
#39=FACE_OUTER_BOUND('',#55,.T.);
#40=FACE_OUTER_BOUND('',#56,.T.);
#41=FACE_OUTER_BOUND('',#57,.T.);
#42=FACE_OUTER_BOUND('',#58,.T.);
#43=FACE_OUTER_BOUND('',#59,.T.);
#44=FACE_OUTER_BOUND('',#63,.T.);
#45=FACE_OUTER_BOUND('',#64,.T.);
#46=FACE_OUTER_BOUND('',#65,.T.);
#47=FACE_OUTER_BOUND('',#66,.T.);
#48=FACE_OUTER_BOUND('',#67,.T.);
#49=FACE_OUTER_BOUND('',#68,.T.);
#50=FACE_OUTER_BOUND('',#69,.T.);
#51=FACE_OUTER_BOUND('',#76,.T.);
#52=FACE_OUTER_BOUND('',#80,.T.);
#53=EDGE_LOOP('',(#223,#224,#225,#226));
#54=EDGE_LOOP('',(#227,#228,#229,#230));
#55=EDGE_LOOP('',(#231,#232,#233,#234));
#56=EDGE_LOOP('',(#235,#236,#237,#238));
#57=EDGE_LOOP('',(#239,#240,#241,#242));
#58=EDGE_LOOP('',(#243,#244,#245,#246));
#59=EDGE_LOOP('',(#247,#248,#249,#250));
#60=EDGE_LOOP('',(#251));
#61=EDGE_LOOP('',(#252));
#62=EDGE_LOOP('',(#253));
#63=EDGE_LOOP('',(#254,#255,#256,#257));
#64=EDGE_LOOP('',(#258,#259,#260,#261));
#65=EDGE_LOOP('',(#262,#263,#264,#265,#266,#267));
#66=EDGE_LOOP('',(#268,#269,#270,#271,#272,#273));
#67=EDGE_LOOP('',(#274,#275,#276,#277,#278,#279));
#68=EDGE_LOOP('',(#280,#281,#282,#283,#284,#285));
#69=EDGE_LOOP('',(#286,#287,#288,#289));
#70=EDGE_LOOP('',(#290));
#71=EDGE_LOOP('',(#291));
#72=EDGE_LOOP('',(#292));
#73=EDGE_LOOP('',(#293));
#74=EDGE_LOOP('',(#294));
#75=EDGE_LOOP('',(#295));
#76=EDGE_LOOP('',(#296,#297,#298,#299));
#77=EDGE_LOOP('',(#300));
#78=EDGE_LOOP('',(#301));
#79=EDGE_LOOP('',(#302));
#80=EDGE_LOOP('',(#303,#304,#305,#306));
#81=LINE('',#464,#111);
#82=LINE('',#470,#112);
#83=LINE('',#476,#113);
#84=LINE('',#482,#114);
#85=LINE('',#488,#115);
#86=LINE('',#494,#116);
#87=LINE('',#499,#117);
#88=LINE('',#501,#118);
#89=LINE('',#503,#119);
#90=LINE('',#504,#120);
#91=LINE('',#508,#121);
#92=LINE('',#510,#122);
#93=LINE('',#512,#123);
#94=LINE('',#513,#124);
#95=LINE('',#515,#125);
#96=LINE('',#516,#126);
#97=LINE('',#519,#127);
#98=LINE('',#521,#128);
#99=LINE('',#522,#129);
#100=LINE('',#525,#130);
#101=LINE('',#527,#131);
#102=LINE('',#528,#132);
#103=LINE('',#531,#133);
#104=LINE('',#533,#134);
#105=LINE('',#534,#135);
#106=LINE('',#537,#136);
#107=LINE('',#539,#137);
#108=LINE('',#540,#138);
#109=LINE('',#542,#139);
#110=LINE('',#544,#140);
#111=VECTOR('',#377,2.5);
#112=VECTOR('',#384,2.5);
#113=VECTOR('',#391,2.5);
#114=VECTOR('',#398,2.1);
#115=VECTOR('',#405,2.10000000000001);
#116=VECTOR('',#412,2.1);
#117=VECTOR('',#417,10.);
#118=VECTOR('',#418,10.);
#119=VECTOR('',#419,10.);
#120=VECTOR('',#420,10.);
#121=VECTOR('',#423,10.);
#122=VECTOR('',#424,10.);
#123=VECTOR('',#425,10.);
#124=VECTOR('',#426,10.);
#125=VECTOR('',#429,10.);
#126=VECTOR('',#430,10.);
#127=VECTOR('',#433,10.);
#128=VECTOR('',#434,10.);
#129=VECTOR('',#435,10.);
#130=VECTOR('',#438,10.);
#131=VECTOR('',#439,10.);
#132=VECTOR('',#440,10.);
#133=VECTOR('',#443,10.);
#134=VECTOR('',#444,10.);
#135=VECTOR('',#445,10.);
#136=VECTOR('',#448,10.);
#137=VECTOR('',#449,10.);
#138=VECTOR('',#450,10.);
#139=VECTOR('',#453,10.);
#140=VECTOR('',#456,10.);
#141=CIRCLE('',#344,2.5);
#142=CIRCLE('',#345,2.5);
#143=CIRCLE('',#347,2.5);
#144=CIRCLE('',#348,2.5);
#145=CIRCLE('',#350,2.5);
#146=CIRCLE('',#351,2.5);
#147=CIRCLE('',#353,2.1);
#148=CIRCLE('',#354,2.1);
#149=CIRCLE('',#356,2.10000000000001);
#150=CIRCLE('',#357,2.10000000000001);
#151=CIRCLE('',#359,2.1);
#152=CIRCLE('',#360,2.1);
#153=VERTEX_POINT('',#461);
#154=VERTEX_POINT('',#463);
#155=VERTEX_POINT('',#467);
#156=VERTEX_POINT('',#469);
#157=VERTEX_POINT('',#473);
#158=VERTEX_POINT('',#475);
#159=VERTEX_POINT('',#479);
#160=VERTEX_POINT('',#481);
#161=VERTEX_POINT('',#485);
#162=VERTEX_POINT('',#487);
#163=VERTEX_POINT('',#491);
#164=VERTEX_POINT('',#493);
#165=VERTEX_POINT('',#497);
#166=VERTEX_POINT('',#498);
#167=VERTEX_POINT('',#500);
#168=VERTEX_POINT('',#502);
#169=VERTEX_POINT('',#506);
#170=VERTEX_POINT('',#507);
#171=VERTEX_POINT('',#509);
#172=VERTEX_POINT('',#511);
#173=VERTEX_POINT('',#518);
#174=VERTEX_POINT('',#520);
#175=VERTEX_POINT('',#524);
#176=VERTEX_POINT('',#526);
#177=VERTEX_POINT('',#530);
#178=VERTEX_POINT('',#532);
#179=VERTEX_POINT('',#536);
#180=VERTEX_POINT('',#538);
#181=EDGE_CURVE('',#153,#153,#141,.T.);
#182=EDGE_CURVE('',#153,#154,#81,.T.);
#183=EDGE_CURVE('',#154,#154,#142,.T.);
#184=EDGE_CURVE('',#155,#155,#143,.T.);
#185=EDGE_CURVE('',#155,#156,#82,.T.);
#186=EDGE_CURVE('',#156,#156,#144,.T.);
#187=EDGE_CURVE('',#157,#157,#145,.T.);
#188=EDGE_CURVE('',#157,#158,#83,.T.);
#189=EDGE_CURVE('',#158,#158,#146,.T.);
#190=EDGE_CURVE('',#159,#159,#147,.T.);
#191=EDGE_CURVE('',#159,#160,#84,.T.);
#192=EDGE_CURVE('',#160,#160,#148,.T.);
#193=EDGE_CURVE('',#161,#161,#149,.T.);
#194=EDGE_CURVE('',#161,#162,#85,.T.);
#195=EDGE_CURVE('',#162,#162,#150,.T.);
#196=EDGE_CURVE('',#163,#163,#151,.T.);
#197=EDGE_CURVE('',#163,#164,#86,.T.);
#198=EDGE_CURVE('',#164,#164,#152,.T.);
#199=EDGE_CURVE('',#165,#166,#87,.T.);
#200=EDGE_CURVE('',#167,#165,#88,.T.);
#201=EDGE_CURVE('',#167,#168,#89,.T.);
#202=EDGE_CURVE('',#166,#168,#90,.T.);
#203=EDGE_CURVE('',#169,#170,#91,.T.);
#204=EDGE_CURVE('',#169,#171,#92,.T.);
#205=EDGE_CURVE('',#171,#172,#93,.T.);
#206=EDGE_CURVE('',#170,#172,#94,.T.);
#207=EDGE_CURVE('',#166,#169,#95,.T.);
#208=EDGE_CURVE('',#168,#171,#96,.T.);
#209=EDGE_CURVE('',#173,#167,#97,.T.);
#210=EDGE_CURVE('',#174,#173,#98,.T.);
#211=EDGE_CURVE('',#172,#174,#99,.T.);
#212=EDGE_CURVE('',#170,#175,#100,.T.);
#213=EDGE_CURVE('',#175,#176,#101,.T.);
#214=EDGE_CURVE('',#176,#165,#102,.T.);
#215=EDGE_CURVE('',#177,#174,#103,.T.);
#216=EDGE_CURVE('',#178,#177,#104,.T.);
#217=EDGE_CURVE('',#178,#175,#105,.T.);
#218=EDGE_CURVE('',#179,#176,#106,.T.);
#219=EDGE_CURVE('',#180,#179,#107,.T.);
#220=EDGE_CURVE('',#180,#173,#108,.T.);
#221=EDGE_CURVE('',#179,#178,#109,.T.);
#222=EDGE_CURVE('',#177,#180,#110,.T.);
#223=ORIENTED_EDGE('',*,*,#181,.F.);
#224=ORIENTED_EDGE('',*,*,#182,.T.);
#225=ORIENTED_EDGE('',*,*,#183,.F.);
#226=ORIENTED_EDGE('',*,*,#182,.F.);
#227=ORIENTED_EDGE('',*,*,#184,.F.);
#228=ORIENTED_EDGE('',*,*,#185,.T.);
#229=ORIENTED_EDGE('',*,*,#186,.F.);
#230=ORIENTED_EDGE('',*,*,#185,.F.);
#231=ORIENTED_EDGE('',*,*,#187,.F.);
#232=ORIENTED_EDGE('',*,*,#188,.T.);
#233=ORIENTED_EDGE('',*,*,#189,.F.);
#234=ORIENTED_EDGE('',*,*,#188,.F.);
#235=ORIENTED_EDGE('',*,*,#190,.F.);
#236=ORIENTED_EDGE('',*,*,#191,.T.);
#237=ORIENTED_EDGE('',*,*,#192,.F.);
#238=ORIENTED_EDGE('',*,*,#191,.F.);
#239=ORIENTED_EDGE('',*,*,#193,.F.);
#240=ORIENTED_EDGE('',*,*,#194,.T.);
#241=ORIENTED_EDGE('',*,*,#195,.F.);
#242=ORIENTED_EDGE('',*,*,#194,.F.);
#243=ORIENTED_EDGE('',*,*,#196,.F.);
#244=ORIENTED_EDGE('',*,*,#197,.T.);
#245=ORIENTED_EDGE('',*,*,#198,.F.);
#246=ORIENTED_EDGE('',*,*,#197,.F.);
#247=ORIENTED_EDGE('',*,*,#199,.F.);
#248=ORIENTED_EDGE('',*,*,#200,.F.);
#249=ORIENTED_EDGE('',*,*,#201,.T.);
#250=ORIENTED_EDGE('',*,*,#202,.F.);
#251=ORIENTED_EDGE('',*,*,#190,.T.);
#252=ORIENTED_EDGE('',*,*,#193,.T.);
#253=ORIENTED_EDGE('',*,*,#196,.T.);
#254=ORIENTED_EDGE('',*,*,#203,.F.);
#255=ORIENTED_EDGE('',*,*,#204,.T.);
#256=ORIENTED_EDGE('',*,*,#205,.T.);
#257=ORIENTED_EDGE('',*,*,#206,.F.);
#258=ORIENTED_EDGE('',*,*,#207,.F.);
#259=ORIENTED_EDGE('',*,*,#202,.T.);
#260=ORIENTED_EDGE('',*,*,#208,.T.);
#261=ORIENTED_EDGE('',*,*,#204,.F.);
#262=ORIENTED_EDGE('',*,*,#208,.F.);
#263=ORIENTED_EDGE('',*,*,#201,.F.);
#264=ORIENTED_EDGE('',*,*,#209,.F.);
#265=ORIENTED_EDGE('',*,*,#210,.F.);
#266=ORIENTED_EDGE('',*,*,#211,.F.);
#267=ORIENTED_EDGE('',*,*,#205,.F.);
#268=ORIENTED_EDGE('',*,*,#199,.T.);
#269=ORIENTED_EDGE('',*,*,#207,.T.);
#270=ORIENTED_EDGE('',*,*,#203,.T.);
#271=ORIENTED_EDGE('',*,*,#212,.T.);
#272=ORIENTED_EDGE('',*,*,#213,.T.);
#273=ORIENTED_EDGE('',*,*,#214,.T.);
#274=ORIENTED_EDGE('',*,*,#206,.T.);
#275=ORIENTED_EDGE('',*,*,#211,.T.);
#276=ORIENTED_EDGE('',*,*,#215,.F.);
#277=ORIENTED_EDGE('',*,*,#216,.F.);
#278=ORIENTED_EDGE('',*,*,#217,.T.);
#279=ORIENTED_EDGE('',*,*,#212,.F.);
#280=ORIENTED_EDGE('',*,*,#200,.T.);
#281=ORIENTED_EDGE('',*,*,#214,.F.);
#282=ORIENTED_EDGE('',*,*,#218,.F.);
#283=ORIENTED_EDGE('',*,*,#219,.F.);
#284=ORIENTED_EDGE('',*,*,#220,.T.);
#285=ORIENTED_EDGE('',*,*,#209,.T.);
#286=ORIENTED_EDGE('',*,*,#221,.F.);
#287=ORIENTED_EDGE('',*,*,#218,.T.);
#288=ORIENTED_EDGE('',*,*,#213,.F.);
#289=ORIENTED_EDGE('',*,*,#217,.F.);
#290=ORIENTED_EDGE('',*,*,#183,.T.);
#291=ORIENTED_EDGE('',*,*,#186,.T.);
#292=ORIENTED_EDGE('',*,*,#189,.T.);
#293=ORIENTED_EDGE('',*,*,#192,.T.);
#294=ORIENTED_EDGE('',*,*,#195,.T.);
#295=ORIENTED_EDGE('',*,*,#198,.T.);
#296=ORIENTED_EDGE('',*,*,#210,.T.);
#297=ORIENTED_EDGE('',*,*,#220,.F.);
#298=ORIENTED_EDGE('',*,*,#222,.F.);
#299=ORIENTED_EDGE('',*,*,#215,.T.);
#300=ORIENTED_EDGE('',*,*,#181,.T.);
#301=ORIENTED_EDGE('',*,*,#184,.T.);
#302=ORIENTED_EDGE('',*,*,#187,.T.);
#303=ORIENTED_EDGE('',*,*,#222,.T.);
#304=ORIENTED_EDGE('',*,*,#219,.T.);
#305=ORIENTED_EDGE('',*,*,#221,.T.);
#306=ORIENTED_EDGE('',*,*,#216,.T.);
#307=CYLINDRICAL_SURFACE('',#343,2.5);
#308=CYLINDRICAL_SURFACE('',#346,2.5);
#309=CYLINDRICAL_SURFACE('',#349,2.5);
#310=CYLINDRICAL_SURFACE('',#352,2.1);
#311=CYLINDRICAL_SURFACE('',#355,2.10000000000001);
#312=CYLINDRICAL_SURFACE('',#358,2.1);
#313=ADVANCED_FACE('',(#37),#307,.F.);
#314=ADVANCED_FACE('',(#38),#308,.F.);
#315=ADVANCED_FACE('',(#39),#309,.F.);
#316=ADVANCED_FACE('',(#40),#310,.F.);
#317=ADVANCED_FACE('',(#41),#311,.F.);
#318=ADVANCED_FACE('',(#42),#312,.F.);
#319=ADVANCED_FACE('',(#43,#15,#16,#17),#27,.F.);
#320=ADVANCED_FACE('',(#44),#28,.F.);
#321=ADVANCED_FACE('',(#45),#29,.F.);
#322=ADVANCED_FACE('',(#46),#30,.F.);
#323=ADVANCED_FACE('',(#47),#31,.T.);
#324=ADVANCED_FACE('',(#48),#32,.T.);
#325=ADVANCED_FACE('',(#49),#33,.T.);
#326=ADVANCED_FACE('',(#50,#18,#19,#20,#21,#22,#23),#34,.T.);
#327=ADVANCED_FACE('',(#51,#24,#25,#26),#35,.T.);
#328=ADVANCED_FACE('',(#52),#36,.F.);
#329=CLOSED_SHELL('',(#313,#314,#315,#316,#317,#318,#319,#320,#321,#322,
#323,#324,#325,#326,#327,#328));
#330=DERIVED_UNIT_ELEMENT(#332,1.);
#331=DERIVED_UNIT_ELEMENT(#551,-3.);
#332=(
MASS_UNIT()
NAMED_UNIT(*)
SI_UNIT(.KILO.,.GRAM.)
);
#333=DERIVED_UNIT((#330,#331));
#334=MEASURE_REPRESENTATION_ITEM('density measure',
POSITIVE_RATIO_MEASURE(7850.),#333);
#335=PROPERTY_DEFINITION_REPRESENTATION(#340,#337);
#336=PROPERTY_DEFINITION_REPRESENTATION(#341,#338);
#337=REPRESENTATION('material name',(#339),#548);
#338=REPRESENTATION('density',(#334),#548);
#339=DESCRIPTIVE_REPRESENTATION_ITEM('Acier','Acier');
#340=PROPERTY_DEFINITION('material property','material name',#558);
#341=PROPERTY_DEFINITION('material property','density of part',#558);
#342=AXIS2_PLACEMENT_3D('placement',#459,#371,#372);
#343=AXIS2_PLACEMENT_3D('',#460,#373,#374);
#344=AXIS2_PLACEMENT_3D('',#462,#375,#376);
#345=AXIS2_PLACEMENT_3D('',#465,#378,#379);
#346=AXIS2_PLACEMENT_3D('',#466,#380,#381);
#347=AXIS2_PLACEMENT_3D('',#468,#382,#383);
#348=AXIS2_PLACEMENT_3D('',#471,#385,#386);
#349=AXIS2_PLACEMENT_3D('',#472,#387,#388);
#350=AXIS2_PLACEMENT_3D('',#474,#389,#390);
#351=AXIS2_PLACEMENT_3D('',#477,#392,#393);
#352=AXIS2_PLACEMENT_3D('',#478,#394,#395);
#353=AXIS2_PLACEMENT_3D('',#480,#396,#397);
#354=AXIS2_PLACEMENT_3D('',#483,#399,#400);
#355=AXIS2_PLACEMENT_3D('',#484,#401,#402);
#356=AXIS2_PLACEMENT_3D('',#486,#403,#404);
#357=AXIS2_PLACEMENT_3D('',#489,#406,#407);
#358=AXIS2_PLACEMENT_3D('',#490,#408,#409);
#359=AXIS2_PLACEMENT_3D('',#492,#410,#411);
#360=AXIS2_PLACEMENT_3D('',#495,#413,#414);
#361=AXIS2_PLACEMENT_3D('',#496,#415,#416);
#362=AXIS2_PLACEMENT_3D('',#505,#421,#422);
#363=AXIS2_PLACEMENT_3D('',#514,#427,#428);
#364=AXIS2_PLACEMENT_3D('',#517,#431,#432);
#365=AXIS2_PLACEMENT_3D('',#523,#436,#437);
#366=AXIS2_PLACEMENT_3D('',#529,#441,#442);
#367=AXIS2_PLACEMENT_3D('',#535,#446,#447);
#368=AXIS2_PLACEMENT_3D('',#541,#451,#452);
#369=AXIS2_PLACEMENT_3D('',#543,#454,#455);
#370=AXIS2_PLACEMENT_3D('',#545,#457,#458);
#371=DIRECTION('axis',(0.,0.,1.));
#372=DIRECTION('refdir',(1.,0.,0.));
#373=DIRECTION('center_axis',(0.,1.,0.));
#374=DIRECTION('ref_axis',(1.,0.,0.));
#375=DIRECTION('center_axis',(0.,1.,0.));
#376=DIRECTION('ref_axis',(1.,0.,0.));
#377=DIRECTION('',(0.,1.,0.));
#378=DIRECTION('center_axis',(0.,-1.,0.));
#379=DIRECTION('ref_axis',(1.,0.,0.));
#380=DIRECTION('center_axis',(0.,1.,0.));
#381=DIRECTION('ref_axis',(1.,0.,0.));
#382=DIRECTION('center_axis',(0.,1.,0.));
#383=DIRECTION('ref_axis',(1.,0.,0.));
#384=DIRECTION('',(0.,1.,0.));
#385=DIRECTION('center_axis',(0.,-1.,0.));
#386=DIRECTION('ref_axis',(1.,0.,0.));
#387=DIRECTION('center_axis',(0.,1.,0.));
#388=DIRECTION('ref_axis',(1.,0.,0.));
#389=DIRECTION('center_axis',(0.,1.,0.));
#390=DIRECTION('ref_axis',(1.,0.,0.));
#391=DIRECTION('',(0.,1.,0.));
#392=DIRECTION('center_axis',(0.,-1.,0.));
#393=DIRECTION('ref_axis',(1.,0.,0.));
#394=DIRECTION('center_axis',(0.,1.,0.));
#395=DIRECTION('ref_axis',(1.,0.,0.));
#396=DIRECTION('center_axis',(0.,1.,0.));
#397=DIRECTION('ref_axis',(1.,0.,0.));
#398=DIRECTION('',(0.,1.,0.));
#399=DIRECTION('center_axis',(0.,-1.,0.));
#400=DIRECTION('ref_axis',(1.,0.,0.));
#401=DIRECTION('center_axis',(0.,1.,0.));
#402=DIRECTION('ref_axis',(1.,0.,0.));
#403=DIRECTION('center_axis',(0.,1.,0.));
#404=DIRECTION('ref_axis',(1.,0.,0.));
#405=DIRECTION('',(0.,1.,0.));
#406=DIRECTION('center_axis',(0.,-1.,0.));
#407=DIRECTION('ref_axis',(1.,0.,0.));
#408=DIRECTION('center_axis',(0.,1.,0.));
#409=DIRECTION('ref_axis',(1.,0.,0.));
#410=DIRECTION('center_axis',(0.,1.,0.));
#411=DIRECTION('ref_axis',(1.,0.,0.));
#412=DIRECTION('',(0.,1.,0.));
#413=DIRECTION('center_axis',(0.,-1.,0.));
#414=DIRECTION('ref_axis',(1.,0.,0.));
#415=DIRECTION('center_axis',(0.,1.,0.));
#416=DIRECTION('ref_axis',(1.,0.,0.));
#417=DIRECTION('',(1.,0.,0.));
#418=DIRECTION('',(0.,0.,1.));
#419=DIRECTION('',(1.,0.,0.));
#420=DIRECTION('',(0.,0.,-1.));
#421=DIRECTION('center_axis',(0.,1.,0.));
#422=DIRECTION('ref_axis',(1.,0.,0.));
#423=DIRECTION('',(1.,0.,0.));
#424=DIRECTION('',(0.,0.,-1.));
#425=DIRECTION('',(1.,0.,0.));
#426=DIRECTION('',(0.,0.,-1.));
#427=DIRECTION('center_axis',(1.,0.,0.));
#428=DIRECTION('ref_axis',(0.,-1.,0.));
#429=DIRECTION('',(0.,-1.,0.));
#430=DIRECTION('',(0.,-1.,0.));
#431=DIRECTION('center_axis',(0.,0.,-1.));
#432=DIRECTION('ref_axis',(-1.,0.,0.));
#433=DIRECTION('',(0.,1.,0.));
#434=DIRECTION('',(-1.,0.,0.));
#435=DIRECTION('',(0.,-1.,0.));
#436=DIRECTION('center_axis',(0.,0.,1.));
#437=DIRECTION('ref_axis',(1.,0.,0.));
#438=DIRECTION('',(0.,1.,0.));
#439=DIRECTION('',(-1.,0.,0.));
#440=DIRECTION('',(0.,-1.,0.));
#441=DIRECTION('center_axis',(1.,0.,0.));
#442=DIRECTION('ref_axis',(0.,1.,0.));
#443=DIRECTION('',(0.,0.,1.));
#444=DIRECTION('',(0.,-1.,0.));
#445=DIRECTION('',(0.,0.,1.));
#446=DIRECTION('center_axis',(-1.,0.,0.));
#447=DIRECTION('ref_axis',(0.,-1.,0.));
#448=DIRECTION('',(0.,0.,1.));
#449=DIRECTION('',(0.,1.,0.));
#450=DIRECTION('',(0.,0.,1.));
#451=DIRECTION('center_axis',(0.,1.,0.));
#452=DIRECTION('ref_axis',(-1.,0.,0.));
#453=DIRECTION('',(1.,0.,0.));
#454=DIRECTION('center_axis',(0.,-1.,0.));
#455=DIRECTION('ref_axis',(1.,0.,0.));
#456=DIRECTION('',(-1.,0.,0.));
#457=DIRECTION('center_axis',(0.,0.,1.));
#458=DIRECTION('ref_axis',(1.,0.,0.));
#459=CARTESIAN_POINT('',(0.,0.,0.));
#460=CARTESIAN_POINT('Origin',(10.,5.00000044703484,85.));
#461=CARTESIAN_POINT('',(7.5,5.00000044703484,85.));
#462=CARTESIAN_POINT('Origin',(10.,5.00000044703484,85.));
#463=CARTESIAN_POINT('',(7.5,30.0000004470348,85.));
#464=CARTESIAN_POINT('',(7.5,5.00000044703484,85.));
#465=CARTESIAN_POINT('Origin',(10.,30.0000004470348,85.));
#466=CARTESIAN_POINT('Origin',(10.0000000372529,5.00000044703484,50.));
#467=CARTESIAN_POINT('',(7.5000000372529,5.00000044703484,50.));
#468=CARTESIAN_POINT('Origin',(10.0000000372529,5.00000044703484,50.));
#469=CARTESIAN_POINT('',(7.5000000372529,30.0000004470348,50.));
#470=CARTESIAN_POINT('',(7.5000000372529,5.00000044703484,50.));
#471=CARTESIAN_POINT('Origin',(10.0000000372529,30.0000004470348,50.));
#472=CARTESIAN_POINT('Origin',(10.0000000645238,5.00000044703484,15.));
#473=CARTESIAN_POINT('',(7.50000006452377,5.00000044703484,15.));
#474=CARTESIAN_POINT('Origin',(10.0000000645238,5.00000044703484,15.));
#475=CARTESIAN_POINT('',(7.50000006452377,30.0000004470348,15.));
#476=CARTESIAN_POINT('',(7.50000006452377,5.00000044703484,15.));
#477=CARTESIAN_POINT('Origin',(10.0000000645238,30.0000004470348,15.));
#478=CARTESIAN_POINT('Origin',(8.00000007450581,20.0000004470348,136.8));
#479=CARTESIAN_POINT('',(5.90000007450581,20.0000004470348,136.8));
#480=CARTESIAN_POINT('Origin',(8.00000007450581,20.0000004470348,136.8));
#481=CARTESIAN_POINT('',(5.90000007450581,30.0000004470348,136.8));
#482=CARTESIAN_POINT('',(5.90000007450581,20.0000004470348,136.8));
#483=CARTESIAN_POINT('Origin',(8.00000007450581,30.0000004470348,136.8));
#484=CARTESIAN_POINT('Origin',(8.00000007450581,20.0000004470348,166.8));
#485=CARTESIAN_POINT('',(5.9000000745058,20.0000004470348,166.8));
#486=CARTESIAN_POINT('Origin',(8.00000007450581,20.0000004470348,166.8));
#487=CARTESIAN_POINT('',(5.9000000745058,30.0000004470348,166.8));
#488=CARTESIAN_POINT('',(5.9000000745058,20.0000004470348,166.8));
#489=CARTESIAN_POINT('Origin',(8.00000007450581,30.0000004470348,166.8));
#490=CARTESIAN_POINT('Origin',(8.00000007450581,20.0000004470348,106.8));
#491=CARTESIAN_POINT('',(5.90000007450581,20.0000004470348,106.8));
#492=CARTESIAN_POINT('Origin',(8.00000007450581,20.0000004470348,106.8));
#493=CARTESIAN_POINT('',(5.90000007450581,30.0000004470348,106.8));
#494=CARTESIAN_POINT('',(5.90000007450581,20.0000004470348,106.8));
#495=CARTESIAN_POINT('Origin',(8.00000007450581,30.0000004470348,106.8));
#496=CARTESIAN_POINT('Origin',(5.00000007450581,20.0000004470348,180.));
#497=CARTESIAN_POINT('',(5.00000007450581,20.0000004470348,180.));
#498=CARTESIAN_POINT('',(11.0000000745058,20.0000004470348,180.));
#499=CARTESIAN_POINT('',(7.50000007450581,20.0000004470348,180.));
#500=CARTESIAN_POINT('',(5.00000007450581,20.0000004470348,100.));
#501=CARTESIAN_POINT('',(5.00000007450581,20.0000004470348,90.));
#502=CARTESIAN_POINT('',(11.0000000745058,20.0000004470348,100.));
#503=CARTESIAN_POINT('',(11.0000000745058,20.0000004470348,100.));
#504=CARTESIAN_POINT('',(11.0000000745058,20.0000004470348,180.));
#505=CARTESIAN_POINT('Origin',(11.0000000745058,14.0000004470348,180.));
#506=CARTESIAN_POINT('',(11.0000000745058,14.0000004470348,180.));
#507=CARTESIAN_POINT('',(15.0000000745058,14.0000004470348,180.));
#508=CARTESIAN_POINT('',(10.5000000745058,14.0000004470348,180.));
#509=CARTESIAN_POINT('',(11.0000000745058,14.0000004470348,100.));
#510=CARTESIAN_POINT('',(11.0000000745058,14.0000004470348,180.));
#511=CARTESIAN_POINT('',(15.0000000745058,14.0000004470348,100.));
#512=CARTESIAN_POINT('',(15.0000000745058,14.0000004470348,100.));
#513=CARTESIAN_POINT('',(15.0000000745058,14.0000004470348,90.));
#514=CARTESIAN_POINT('Origin',(11.0000000745058,20.0000004470348,180.));
#515=CARTESIAN_POINT('',(11.0000000745058,18.7500004470348,180.));
#516=CARTESIAN_POINT('',(11.0000000745058,14.0000004470348,100.));
#517=CARTESIAN_POINT('Origin',(10.0000000745058,12.5000004470348,100.));
#518=CARTESIAN_POINT('',(5.00000007450581,5.00000044703484,100.));
#519=CARTESIAN_POINT('',(5.00000007450581,21.2500004470348,100.));
#520=CARTESIAN_POINT('',(15.0000000745058,5.00000044703484,100.));
#521=CARTESIAN_POINT('',(7.50000007450581,5.00000044703484,100.));
#522=CARTESIAN_POINT('',(15.0000000745058,8.75000044703484,100.));
#523=CARTESIAN_POINT('Origin',(10.0000000745058,17.5000004470348,180.));
#524=CARTESIAN_POINT('',(15.0000000745058,30.0000004470348,180.));
#525=CARTESIAN_POINT('',(15.0000000745058,30.0000004470348,180.));
#526=CARTESIAN_POINT('',(5.00000007450581,30.0000004470348,180.));
#527=CARTESIAN_POINT('',(5.00000007450581,30.0000004470348,180.));
#528=CARTESIAN_POINT('',(5.00000007450581,5.00000044703484,180.));
#529=CARTESIAN_POINT('Origin',(15.0000000745058,5.00000044703484,0.));
#530=CARTESIAN_POINT('',(15.0000000745058,5.00000044703484,0.));
#531=CARTESIAN_POINT('',(15.0000000745058,5.00000044703484,0.));
#532=CARTESIAN_POINT('',(15.0000000745058,30.0000004470348,0.));
#533=CARTESIAN_POINT('',(15.0000000745058,30.0000004470348,0.));
#534=CARTESIAN_POINT('',(15.0000000745058,30.0000004470348,0.));
#535=CARTESIAN_POINT('Origin',(5.00000007450581,30.0000004470348,0.));
#536=CARTESIAN_POINT('',(5.00000007450581,30.0000004470348,0.));
#537=CARTESIAN_POINT('',(5.00000007450581,30.0000004470348,0.));
#538=CARTESIAN_POINT('',(5.00000007450581,5.00000044703484,0.));
#539=CARTESIAN_POINT('',(5.00000007450581,5.00000044703484,0.));
#540=CARTESIAN_POINT('',(5.00000007450581,5.00000044703484,0.));
#541=CARTESIAN_POINT('Origin',(15.0000000745058,30.0000004470348,0.));
#542=CARTESIAN_POINT('',(5.00000007450581,30.0000004470348,0.));
#543=CARTESIAN_POINT('Origin',(5.00000007450581,5.00000044703484,0.));
#544=CARTESIAN_POINT('',(15.0000000745058,5.00000044703484,0.));
#545=CARTESIAN_POINT('Origin',(10.0000000745058,17.5000004470348,0.));
#546=UNCERTAINTY_MEASURE_WITH_UNIT(LENGTH_MEASURE(0.01),#550,
'DISTANCE_ACCURACY_VALUE',
'Maximum model space distance between geometric entities at asserted c
onnectivities');
#547=UNCERTAINTY_MEASURE_WITH_UNIT(LENGTH_MEASURE(0.01),#550,
'DISTANCE_ACCURACY_VALUE',
'Maximum model space distance between geometric entities at asserted c
onnectivities');
#548=(
GEOMETRIC_REPRESENTATION_CONTEXT(3)
GLOBAL_UNCERTAINTY_ASSIGNED_CONTEXT((#546))
GLOBAL_UNIT_ASSIGNED_CONTEXT((#550,#552,#553))
REPRESENTATION_CONTEXT('','3D')
);
#549=(
GEOMETRIC_REPRESENTATION_CONTEXT(3)
GLOBAL_UNCERTAINTY_ASSIGNED_CONTEXT((#547))
GLOBAL_UNIT_ASSIGNED_CONTEXT((#550,#552,#553))
REPRESENTATION_CONTEXT('','3D')
);
#550=(
LENGTH_UNIT()
NAMED_UNIT(*)
SI_UNIT(.MILLI.,.METRE.)
);
#551=(
LENGTH_UNIT()
NAMED_UNIT(*)
SI_UNIT($,.METRE.)
);
#552=(
NAMED_UNIT(*)
PLANE_ANGLE_UNIT()
SI_UNIT($,.RADIAN.)
);
#553=(
NAMED_UNIT(*)
SI_UNIT($,.STERADIAN.)
SOLID_ANGLE_UNIT()
);
#554=SHAPE_DEFINITION_REPRESENTATION(#555,#556);
#555=PRODUCT_DEFINITION_SHAPE('',$,#558);
#556=SHAPE_REPRESENTATION('',(#342),#548);
#557=PRODUCT_DEFINITION_CONTEXT('part definition',#562,'design');
#558=PRODUCT_DEFINITION('Support droite','Support droite',#559,#557);
#559=PRODUCT_DEFINITION_FORMATION('',$,#564);
#560=PRODUCT_RELATED_PRODUCT_CATEGORY('Support droite','Support droite',
(#564));
#561=APPLICATION_PROTOCOL_DEFINITION('international standard',
'automotive_design',2009,#562);
#562=APPLICATION_CONTEXT(
'Core Data for Automotive Mechanical Design Process');
#563=PRODUCT_CONTEXT('part definition',#562,'mechanical');
#564=PRODUCT('Support droite','Support droite',$,(#563));
#565=PRESENTATION_STYLE_ASSIGNMENT((#566));
#566=SURFACE_STYLE_USAGE(.BOTH.,#567);
#567=SURFACE_SIDE_STYLE('',(#568));
#568=SURFACE_STYLE_FILL_AREA(#569);
#569=FILL_AREA_STYLE('Acier - Satin\X\E9',(#570));
#570=FILL_AREA_STYLE_COLOUR('Acier - Satin\X\E9',#571);
#571=COLOUR_RGB('Acier - Satin\X\E9',0.627450980392157,0.627450980392157,
0.627450980392157);
ENDSEC;
END-ISO-10303-21;
