ISO-10303-21;
HEADER;
FILE_DESCRIPTION(('CATIA V5 STEP Exchange'),'2;1');

FILE_NAME('D:\\MOGI Guitar\\MOGI Guitar - Documents\\Technique\\Prototypes\\Prototype_3\\V3.1\\STP\\Pivot taraude.stp','2022-11-25T14:01:09+00:00',('none'),('none'),'CATIA Version 5 Release 20 GA (IN-10)','CATIA V5 STEP AP203','none');

FILE_SCHEMA(('CONFIG_CONTROL_DESIGN'));

ENDSEC;
/* file written by CATIA V5R20 */
DATA;
#5=PRODUCT('Pivot taraude','','',(#2)) ;
#1=APPLICATION_CONTEXT('configuration controlled 3D design of mechanical parts and assemblies') ;
#14=PRODUCT_DEFINITION('',' ',#6,#3) ;
#16=SECURITY_CLASSIFICATION(' ',' ',#15) ;
#15=SECURITY_CLASSIFICATION_LEVEL('unclassified') ;
#47=CARTESIAN_POINT(' ',(0.,0.,0.)) ;
#52=CARTESIAN_POINT('Axis2P3D Location',(5.3290705182E-015,3.9,51.)) ;
#57=CARTESIAN_POINT('Line Origine',(-0.87758256189,0.,50.5205744614)) ;
#61=CARTESIAN_POINT('Vertex',(-0.87758256189,-4.,50.5205744614)) ;
#63=CARTESIAN_POINT('Vertex',(-0.87758256189,4.,50.5205744614)) ;
#66=CARTESIAN_POINT('Axis2P3D Location',(5.3290705182E-015,-4.,51.)) ;
#70=CARTESIAN_POINT('Vertex',(0.87758256189,-4.,51.4794255386)) ;
#73=CARTESIAN_POINT('Line Origine',(0.87758256189,0.,51.4794255386)) ;
#77=CARTESIAN_POINT('Vertex',(0.87758256189,4.,51.4794255386)) ;
#80=CARTESIAN_POINT('Axis2P3D Location',(5.3290705182E-015,4.,51.)) ;
#92=CARTESIAN_POINT('Axis2P3D Location',(5.3290705182E-015,-4.,51.)) ;
#97=CARTESIAN_POINT('Axis2P3D Location',(5.3290705182E-015,4.,51.)) ;
#109=CARTESIAN_POINT('Axis2P3D Location',(0.,0.,53.)) ;
#114=CARTESIAN_POINT('Axis2P3D Location',(0.,0.,53.)) ;
#118=CARTESIAN_POINT('Vertex',(-1.53576948331,0.838994692557,53.)) ;
#120=CARTESIAN_POINT('Vertex',(1.53576948331,-0.838994692557,53.)) ;
#123=CARTESIAN_POINT('Axis2P3D Location',(0.,0.,53.)) ;
#133=CARTESIAN_POINT('Axis2P3D Location',(0.,0.,62.9)) ;
#138=CARTESIAN_POINT('Axis2P3D Location',(0.,0.,62.5)) ;
#142=CARTESIAN_POINT('Vertex',(1.53576948331,-0.838994692557,62.5)) ;
#144=CARTESIAN_POINT('Vertex',(-1.53576948331,0.838994692557,62.5)) ;
#147=CARTESIAN_POINT('Line Origine',(-1.53576948331,0.838994692557,58.1549992371)) ;
#152=CARTESIAN_POINT('Line Origine',(1.53576948331,-0.838994692557,58.1549992371)) ;
#164=CARTESIAN_POINT('Axis2P3D Location',(0.,0.,62.5)) ;
#176=CARTESIAN_POINT('Axis2P3D Location',(8.70414851306E-013,1.19376730723E-012,60.75)) ;
#181=CARTESIAN_POINT('Line Origine',(-1.75516512238,0.958851079767,62.75)) ;
#185=CARTESIAN_POINT('Vertex',(-1.97456076181,1.07870746634,63.)) ;
#188=CARTESIAN_POINT('Axis2P3D Location',(-2.48689957516E-013,-3.41005002014E-013,63.)) ;
#192=CARTESIAN_POINT('Vertex',(1.97456076425,-1.07870746186,63.)) ;
#195=CARTESIAN_POINT('Line Origine',(1.75516512378,-0.958851077208,62.75)) ;
#207=CARTESIAN_POINT('Axis2P3D Location',(-2.55351295664E-015,-1.08246744901E-015,60.75)) ;
#212=CARTESIAN_POINT('Axis2P3D Location',(4.4408920985E-016,1.66533453694E-016,63.)) ;
#224=CARTESIAN_POINT('Axis2P3D Location',(-4.,-4.,48.)) ;
#229=CARTESIAN_POINT('Line Origine',(-8.881784197E-016,-4.,63.)) ;
#233=CARTESIAN_POINT('Vertex',(-3.5,-4.,63.)) ;
#235=CARTESIAN_POINT('Vertex',(3.5,-4.,63.)) ;
#238=CARTESIAN_POINT('Line Origine',(-3.5,-4.,57.5)) ;
#242=CARTESIAN_POINT('Vertex',(-3.5,-4.,52.)) ;
#245=CARTESIAN_POINT('Axis2P3D Location',(7.4162898045E-014,-4.,52.)) ;
#249=CARTESIAN_POINT('Vertex',(-3.21743429232E-007,-4.,48.5)) ;
#252=CARTESIAN_POINT('Axis2P3D Location',(-5.59552404411E-014,-4.,52.)) ;
#256=CARTESIAN_POINT('Vertex',(3.5,-4.,51.9999996783)) ;
#259=CARTESIAN_POINT('Line Origine',(3.5,-4.,57.5)) ;
#276=CARTESIAN_POINT('Axis2P3D Location',(-3.5,-3.5,55.5)) ;
#281=CARTESIAN_POINT('Line Origine',(-4.,-3.5,55.5)) ;
#285=CARTESIAN_POINT('Vertex',(-4.,-3.5,52.)) ;
#287=CARTESIAN_POINT('Vertex',(-4.,-3.5,63.)) ;
#290=CARTESIAN_POINT('Axis2P3D Location',(-3.5,-3.5,52.)) ;
#295=CARTESIAN_POINT('Axis2P3D Location',(-3.5,-3.5,63.)) ;
#307=CARTESIAN_POINT('Axis2P3D Location',(3.5,-3.5,55.5)) ;
#312=CARTESIAN_POINT('Axis2P3D Location',(3.5,-3.5,52.)) ;
#316=CARTESIAN_POINT('Vertex',(4.,-3.5,52.)) ;
#319=CARTESIAN_POINT('Line Origine',(4.,-3.5,55.5)) ;
#323=CARTESIAN_POINT('Vertex',(4.,-3.5,63.)) ;
#326=CARTESIAN_POINT('Axis2P3D Location',(3.5,-3.5,63.)) ;
#338=CARTESIAN_POINT('Axis2P3D Location',(-4.14538195437E-013,-3.5,52.)) ;
#343=CARTESIAN_POINT('Axis2P3D Location',(-4.14538195437E-013,-3.5,52.)) ;
#347=CARTESIAN_POINT('Vertex',(-8.00040872142E-016,-3.5,48.)) ;
#350=CARTESIAN_POINT('Axis2P3D Location',(-4.14538195437E-013,-3.5,52.)) ;
#364=CARTESIAN_POINT('Axis2P3D Location',(-4.,4.,48.)) ;
#369=CARTESIAN_POINT('Line Origine',(3.5,4.,57.5)) ;
#373=CARTESIAN_POINT('Vertex',(3.5,4.,63.)) ;
#375=CARTESIAN_POINT('Vertex',(3.5,4.,52.0000000061)) ;
#378=CARTESIAN_POINT('Axis2P3D Location',(2.57571741713E-014,4.,52.)) ;
#382=CARTESIAN_POINT('Vertex',(7.82896592E-009,4.,48.5)) ;
#385=CARTESIAN_POINT('Axis2P3D Location',(5.15143483426E-014,4.,52.)) ;
#389=CARTESIAN_POINT('Vertex',(-3.5,4.,52.)) ;
#392=CARTESIAN_POINT('Line Origine',(-3.5,4.,57.5)) ;
#396=CARTESIAN_POINT('Vertex',(-3.5,4.,63.)) ;
#399=CARTESIAN_POINT('Line Origine',(0.,4.,63.)) ;
#416=CARTESIAN_POINT('Axis2P3D Location',(0.,0.,63.)) ;
#421=CARTESIAN_POINT('Axis2P3D Location',(-3.5,3.5,63.)) ;
#425=CARTESIAN_POINT('Vertex',(-4.,3.5,63.)) ;
#429=CARTESIAN_POINT('Control Point',(-4.,-3.5,63.)) ;
#430=CARTESIAN_POINT('Control Point',(-4.,3.5,63.)) ;
#433=CARTESIAN_POINT('Control Point',(4.,3.5,63.)) ;
#434=CARTESIAN_POINT('Control Point',(4.,-3.5,63.)) ;
#435=CARTESIAN_POINT('Vertex',(4.,3.5,63.)) ;
#438=CARTESIAN_POINT('Axis2P3D Location',(3.5,3.5,63.)) ;
#458=CARTESIAN_POINT('Axis2P3D Location',(-4.,-4.,48.)) ;
#463=CARTESIAN_POINT('Line Origine',(-4.,3.5,57.5)) ;
#467=CARTESIAN_POINT('Vertex',(-4.,3.5,52.)) ;
#470=CARTESIAN_POINT('Line Origine',(-4.,0.,52.)) ;
#482=CARTESIAN_POINT('Axis2P3D Location',(2.22044604925E-016,-8.881784197E-016,52.)) ;
#487=CARTESIAN_POINT('Line Origine',(-2.28847549044E-017,-8.881784197E-016,48.)) ;
#491=CARTESIAN_POINT('Vertex',(7.54271362333E-016,3.5,48.)) ;
#494=CARTESIAN_POINT('Axis2P3D Location',(9.99200722163E-016,3.5,52.)) ;
#506=CARTESIAN_POINT('Axis2P3D Location',(4.,-4.,48.)) ;
#511=CARTESIAN_POINT('Line Origine',(4.,0.,52.)) ;
#515=CARTESIAN_POINT('Vertex',(4.,3.5,52.)) ;
#518=CARTESIAN_POINT('Line Origine',(4.,3.5,57.5)) ;
#530=CARTESIAN_POINT('Axis2P3D Location',(-1.11022302463E-015,8.881784197E-016,52.)) ;
#535=CARTESIAN_POINT('Axis2P3D Location',(-3.33066907388E-016,3.5,52.)) ;
#547=CARTESIAN_POINT('Axis2P3D Location',(-3.5,3.5,55.5)) ;
#552=CARTESIAN_POINT('Axis2P3D Location',(-3.5,3.5,52.)) ;
#564=CARTESIAN_POINT('Axis2P3D Location',(3.5,3.5,55.5)) ;
#569=CARTESIAN_POINT('Axis2P3D Location',(3.5,3.5,52.)) ;
#581=CARTESIAN_POINT('Axis2P3D Location',(3.33066907388E-015,3.5,52.)) ;
#598=CARTESIAN_POINT('Sortie.1 (Point.1)',(0.,1.65,63.)) ;
#53=DIRECTION('Axis2P3D Direction',(0.,-1.,-0.)) ;
#54=DIRECTION('Axis2P3D XDirection',(0.87758256189,0.,0.479425538604)) ;
#58=DIRECTION('Vector Direction',(0.,-1.,0.)) ;
#67=DIRECTION('Axis2P3D Direction',(0.,-1.,-0.)) ;
#74=DIRECTION('Vector Direction',(0.,-1.,0.)) ;
#81=DIRECTION('Axis2P3D Direction',(0.,-1.,-0.)) ;
#93=DIRECTION('Axis2P3D Direction',(0.,-1.,-0.)) ;
#98=DIRECTION('Axis2P3D Direction',(0.,-1.,-0.)) ;
#110=DIRECTION('Axis2P3D Direction',(0.,-0.,-1.)) ;
#111=DIRECTION('Axis2P3D XDirection',(1.,0.,-0.)) ;
#115=DIRECTION('Axis2P3D Direction',(0.,-0.,-1.)) ;
#124=DIRECTION('Axis2P3D Direction',(0.,-0.,-1.)) ;
#134=DIRECTION('Axis2P3D Direction',(0.,-0.,-1.)) ;
#135=DIRECTION('Axis2P3D XDirection',(0.87758256189,-0.479425538604,0.)) ;
#139=DIRECTION('Axis2P3D Direction',(0.,-0.,-1.)) ;
#148=DIRECTION('Vector Direction',(0.,0.,-1.)) ;
#153=DIRECTION('Vector Direction',(0.,0.,-1.)) ;
#165=DIRECTION('Axis2P3D Direction',(0.,-0.,-1.)) ;
#177=DIRECTION('Axis2P3D Direction',(-4.97379915032E-013,-6.8212102633E-013,1.)) ;
#178=DIRECTION('Axis2P3D XDirection',(-0.871862448382,0.489750825524,-9.9571929607E-014)) ;
#182=DIRECTION('Vector Direction',(-0.62054458007,0.339005050325,0.707106781187)) ;
#189=DIRECTION('Axis2P3D Direction',(-4.10562001787E-013,-7.30889206174E-013,1.)) ;
#196=DIRECTION('Vector Direction',(0.620544580563,-0.339005049421,0.707106781187)) ;
#208=DIRECTION('Axis2P3D Direction',(1.33226762955E-015,5.55111512313E-016,1.)) ;
#209=DIRECTION('Axis2P3D XDirection',(0.87758256189,-0.479425538604,-9.21962311176E-016)) ;
#213=DIRECTION('Axis2P3D Direction',(5.39775294107E-016,9.88052048347E-016,1.)) ;
#225=DIRECTION('Axis2P3D Direction',(0.,-1.,0.)) ;
#226=DIRECTION('Axis2P3D XDirection',(1.,0.,0.)) ;
#230=DIRECTION('Vector Direction',(-1.,0.,0.)) ;
#239=DIRECTION('Vector Direction',(0.,0.,1.)) ;
#246=DIRECTION('Axis2P3D Direction',(0.,-1.,0.)) ;
#253=DIRECTION('Axis2P3D Direction',(0.,-1.,0.)) ;
#260=DIRECTION('Vector Direction',(0.,0.,1.)) ;
#277=DIRECTION('Axis2P3D Direction',(0.,0.,1.)) ;
#278=DIRECTION('Axis2P3D XDirection',(-1.,1.83697019872E-016,0.)) ;
#282=DIRECTION('Vector Direction',(0.,0.,1.)) ;
#291=DIRECTION('Axis2P3D Direction',(0.,0.,1.)) ;
#296=DIRECTION('Axis2P3D Direction',(0.,0.,1.)) ;
#308=DIRECTION('Axis2P3D Direction',(0.,0.,1.)) ;
#309=DIRECTION('Axis2P3D XDirection',(0.,-1.,0.)) ;
#313=DIRECTION('Axis2P3D Direction',(0.,0.,1.)) ;
#320=DIRECTION('Vector Direction',(0.,0.,1.)) ;
#327=DIRECTION('Axis2P3D Direction',(0.,0.,1.)) ;
#339=DIRECTION('Axis2P3D Direction',(-0.,-1.,0.)) ;
#340=DIRECTION('Axis2P3D XDirection',(-0.607918996396,0.,-0.793999051524)) ;
#344=DIRECTION('Axis2P3D Direction',(-0.,-1.,0.)) ;
#351=DIRECTION('Axis2P3D Direction',(-0.,-1.,0.)) ;
#365=DIRECTION('Axis2P3D Direction',(0.,-1.,0.)) ;
#366=DIRECTION('Axis2P3D XDirection',(1.,0.,0.)) ;
#370=DIRECTION('Vector Direction',(0.,0.,-1.)) ;
#379=DIRECTION('Axis2P3D Direction',(0.,-1.,0.)) ;
#386=DIRECTION('Axis2P3D Direction',(0.,-1.,0.)) ;
#393=DIRECTION('Vector Direction',(0.,0.,1.)) ;
#400=DIRECTION('Vector Direction',(1.,0.,0.)) ;
#417=DIRECTION('Axis2P3D Direction',(0.,0.,1.)) ;
#418=DIRECTION('Axis2P3D XDirection',(1.,0.,0.)) ;
#422=DIRECTION('Axis2P3D Direction',(0.,0.,1.)) ;
#439=DIRECTION('Axis2P3D Direction',(0.,0.,1.)) ;
#459=DIRECTION('Axis2P3D Direction',(1.,-2.22044604925E-016,0.)) ;
#460=DIRECTION('Axis2P3D XDirection',(2.22044604925E-016,1.,0.)) ;
#464=DIRECTION('Vector Direction',(0.,0.,1.)) ;
#471=DIRECTION('Vector Direction',(-2.53765262771E-016,-1.,0.)) ;
#483=DIRECTION('Axis2P3D Direction',(-2.22044604925E-016,-1.,0.)) ;
#484=DIRECTION('Axis2P3D XDirection',(-1.,2.22044604925E-016,0.)) ;
#488=DIRECTION('Vector Direction',(-2.22044604925E-016,-1.,0.)) ;
#495=DIRECTION('Axis2P3D Direction',(-2.22044604925E-016,-1.,0.)) ;
#507=DIRECTION('Axis2P3D Direction',(1.,-1.66533453694E-016,0.)) ;
#508=DIRECTION('Axis2P3D XDirection',(1.66533453694E-016,1.,0.)) ;
#512=DIRECTION('Vector Direction',(-1.90323947079E-016,-1.,0.)) ;
#519=DIRECTION('Vector Direction',(0.,0.,-1.)) ;
#531=DIRECTION('Axis2P3D Direction',(-2.22044604925E-016,-1.,0.)) ;
#532=DIRECTION('Axis2P3D XDirection',(-1.83697019872E-016,4.07889322034E-032,-1.)) ;
#536=DIRECTION('Axis2P3D Direction',(-2.22044604925E-016,-1.,0.)) ;
#548=DIRECTION('Axis2P3D Direction',(0.,0.,1.)) ;
#549=DIRECTION('Axis2P3D XDirection',(1.83697019872E-016,1.,-0.)) ;
#553=DIRECTION('Axis2P3D Direction',(0.,0.,1.)) ;
#565=DIRECTION('Axis2P3D Direction',(0.,0.,-1.)) ;
#566=DIRECTION('Axis2P3D XDirection',(7.04481399828E-016,1.,0.)) ;
#570=DIRECTION('Axis2P3D Direction',(0.,0.,-1.)) ;
#582=DIRECTION('Axis2P3D Direction',(-0.,-1.,0.)) ;
#583=DIRECTION('Axis2P3D XDirection',(-0.218901564241,0.,-0.975746947304)) ;
#48=AXIS2_PLACEMENT_3D(' ',#47,$,$) ;
#55=AXIS2_PLACEMENT_3D('Cylinder Axis2P3D',#52,#53,#54) ;
#68=AXIS2_PLACEMENT_3D('Circle Axis2P3D',#66,#67,$) ;
#82=AXIS2_PLACEMENT_3D('Circle Axis2P3D',#80,#81,$) ;
#94=AXIS2_PLACEMENT_3D('Circle Axis2P3D',#92,#93,$) ;
#99=AXIS2_PLACEMENT_3D('Circle Axis2P3D',#97,#98,$) ;
#112=AXIS2_PLACEMENT_3D('Plane Axis2P3D',#109,#110,#111) ;
#116=AXIS2_PLACEMENT_3D('Circle Axis2P3D',#114,#115,$) ;
#125=AXIS2_PLACEMENT_3D('Circle Axis2P3D',#123,#124,$) ;
#136=AXIS2_PLACEMENT_3D('Cylinder Axis2P3D',#133,#134,#135) ;
#140=AXIS2_PLACEMENT_3D('Circle Axis2P3D',#138,#139,$) ;
#166=AXIS2_PLACEMENT_3D('Circle Axis2P3D',#164,#165,$) ;
#179=AXIS2_PLACEMENT_3D('Cone Axis2P3D',#176,#177,#178) ;
#190=AXIS2_PLACEMENT_3D('Circle Axis2P3D',#188,#189,$) ;
#210=AXIS2_PLACEMENT_3D('Cone Axis2P3D',#207,#208,#209) ;
#214=AXIS2_PLACEMENT_3D('Circle Axis2P3D',#212,#213,$) ;
#227=AXIS2_PLACEMENT_3D('Plane Axis2P3D',#224,#225,#226) ;
#247=AXIS2_PLACEMENT_3D('Circle Axis2P3D',#245,#246,$) ;
#254=AXIS2_PLACEMENT_3D('Circle Axis2P3D',#252,#253,$) ;
#279=AXIS2_PLACEMENT_3D('Cylinder Axis2P3D',#276,#277,#278) ;
#292=AXIS2_PLACEMENT_3D('Circle Axis2P3D',#290,#291,$) ;
#297=AXIS2_PLACEMENT_3D('Circle Axis2P3D',#295,#296,$) ;
#310=AXIS2_PLACEMENT_3D('Cylinder Axis2P3D',#307,#308,#309) ;
#314=AXIS2_PLACEMENT_3D('Circle Axis2P3D',#312,#313,$) ;
#328=AXIS2_PLACEMENT_3D('Circle Axis2P3D',#326,#327,$) ;
#341=AXIS2_PLACEMENT_3D('Torus Axis2P3D',#338,#339,#340) ;
#345=AXIS2_PLACEMENT_3D('Circle Axis2P3D',#343,#344,$) ;
#352=AXIS2_PLACEMENT_3D('Circle Axis2P3D',#350,#351,$) ;
#367=AXIS2_PLACEMENT_3D('Plane Axis2P3D',#364,#365,#366) ;
#380=AXIS2_PLACEMENT_3D('Circle Axis2P3D',#378,#379,$) ;
#387=AXIS2_PLACEMENT_3D('Circle Axis2P3D',#385,#386,$) ;
#419=AXIS2_PLACEMENT_3D('Plane Axis2P3D',#416,#417,#418) ;
#423=AXIS2_PLACEMENT_3D('Circle Axis2P3D',#421,#422,$) ;
#440=AXIS2_PLACEMENT_3D('Circle Axis2P3D',#438,#439,$) ;
#461=AXIS2_PLACEMENT_3D('Plane Axis2P3D',#458,#459,#460) ;
#485=AXIS2_PLACEMENT_3D('Cylinder Axis2P3D',#482,#483,#484) ;
#496=AXIS2_PLACEMENT_3D('Circle Axis2P3D',#494,#495,$) ;
#509=AXIS2_PLACEMENT_3D('Plane Axis2P3D',#506,#507,#508) ;
#533=AXIS2_PLACEMENT_3D('Cylinder Axis2P3D',#530,#531,#532) ;
#537=AXIS2_PLACEMENT_3D('Circle Axis2P3D',#535,#536,$) ;
#550=AXIS2_PLACEMENT_3D('Cylinder Axis2P3D',#547,#548,#549) ;
#554=AXIS2_PLACEMENT_3D('Circle Axis2P3D',#552,#553,$) ;
#567=AXIS2_PLACEMENT_3D('Cylinder Axis2P3D',#564,#565,#566) ;
#571=AXIS2_PLACEMENT_3D('Circle Axis2P3D',#569,#570,$) ;
#584=AXIS2_PLACEMENT_3D('Torus Axis2P3D',#581,#582,#583) ;
#40=PRODUCT_DEFINITION_SHAPE(' ',' ',#14) ;
#31=APPROVAL_PERSON_ORGANIZATION(#25,#21,#19) ;
#25=PERSON_AND_ORGANIZATION(#22,#23) ;
#22=PERSON(' ',' ',' ',$,$,$) ;
#23=ORGANIZATION(' ',' ',' ') ;
#21=APPROVAL(#20,' ') ;
#20=APPROVAL_STATUS('not_yet_approved') ;
#19=APPROVAL_ROLE('APPROVER') ;
#13=DATE_AND_TIME(#11,#12) ;
#12=LOCAL_TIME(15,1,9.,#10) ;
#10=COORDINATED_UNIVERSAL_TIME_OFFSET(0,0,.AHEAD.) ;
#86=ORIENTED_EDGE('',*,*,#65,.F.) ;
#87=ORIENTED_EDGE('',*,*,#72,.T.) ;
#88=ORIENTED_EDGE('',*,*,#79,.T.) ;
#89=ORIENTED_EDGE('',*,*,#84,.F.) ;
#103=ORIENTED_EDGE('',*,*,#79,.F.) ;
#104=ORIENTED_EDGE('',*,*,#96,.T.) ;
#105=ORIENTED_EDGE('',*,*,#65,.T.) ;
#106=ORIENTED_EDGE('',*,*,#101,.F.) ;
#129=ORIENTED_EDGE('',*,*,#122,.F.) ;
#130=ORIENTED_EDGE('',*,*,#127,.F.) ;
#158=ORIENTED_EDGE('',*,*,#146,.T.) ;
#159=ORIENTED_EDGE('',*,*,#151,.F.) ;
#160=ORIENTED_EDGE('',*,*,#122,.T.) ;
#161=ORIENTED_EDGE('',*,*,#156,.T.) ;
#170=ORIENTED_EDGE('',*,*,#168,.T.) ;
#171=ORIENTED_EDGE('',*,*,#156,.F.) ;
#172=ORIENTED_EDGE('',*,*,#127,.T.) ;
#173=ORIENTED_EDGE('',*,*,#151,.T.) ;
#201=ORIENTED_EDGE('',*,*,#187,.T.) ;
#202=ORIENTED_EDGE('',*,*,#194,.T.) ;
#203=ORIENTED_EDGE('',*,*,#199,.F.) ;
#204=ORIENTED_EDGE('',*,*,#168,.F.) ;
#218=ORIENTED_EDGE('',*,*,#199,.T.) ;
#219=ORIENTED_EDGE('',*,*,#216,.T.) ;
#220=ORIENTED_EDGE('',*,*,#187,.F.) ;
#221=ORIENTED_EDGE('',*,*,#146,.F.) ;
#265=ORIENTED_EDGE('',*,*,#237,.F.) ;
#266=ORIENTED_EDGE('',*,*,#244,.F.) ;
#267=ORIENTED_EDGE('',*,*,#251,.F.) ;
#268=ORIENTED_EDGE('',*,*,#258,.F.) ;
#269=ORIENTED_EDGE('',*,*,#263,.F.) ;
#272=ORIENTED_EDGE('',*,*,#96,.F.) ;
#273=ORIENTED_EDGE('',*,*,#72,.F.) ;
#301=ORIENTED_EDGE('',*,*,#289,.F.) ;
#302=ORIENTED_EDGE('',*,*,#294,.T.) ;
#303=ORIENTED_EDGE('',*,*,#244,.T.) ;
#304=ORIENTED_EDGE('',*,*,#299,.T.) ;
#332=ORIENTED_EDGE('',*,*,#263,.T.) ;
#333=ORIENTED_EDGE('',*,*,#318,.F.) ;
#334=ORIENTED_EDGE('',*,*,#325,.F.) ;
#335=ORIENTED_EDGE('',*,*,#330,.T.) ;
#356=ORIENTED_EDGE('',*,*,#318,.T.) ;
#357=ORIENTED_EDGE('',*,*,#258,.T.) ;
#358=ORIENTED_EDGE('',*,*,#251,.T.) ;
#359=ORIENTED_EDGE('',*,*,#294,.F.) ;
#360=ORIENTED_EDGE('',*,*,#349,.F.) ;
#361=ORIENTED_EDGE('',*,*,#354,.F.) ;
#405=ORIENTED_EDGE('',*,*,#377,.T.) ;
#406=ORIENTED_EDGE('',*,*,#384,.T.) ;
#407=ORIENTED_EDGE('',*,*,#391,.T.) ;
#408=ORIENTED_EDGE('',*,*,#398,.T.) ;
#409=ORIENTED_EDGE('',*,*,#403,.F.) ;
#412=ORIENTED_EDGE('',*,*,#84,.T.) ;
#413=ORIENTED_EDGE('',*,*,#101,.T.) ;
#444=ORIENTED_EDGE('',*,*,#403,.T.) ;
#445=ORIENTED_EDGE('',*,*,#427,.F.) ;
#446=ORIENTED_EDGE('',*,*,#431,.T.) ;
#447=ORIENTED_EDGE('',*,*,#299,.F.) ;
#448=ORIENTED_EDGE('',*,*,#237,.T.) ;
#449=ORIENTED_EDGE('',*,*,#330,.F.) ;
#450=ORIENTED_EDGE('',*,*,#437,.T.) ;
#451=ORIENTED_EDGE('',*,*,#442,.F.) ;
#454=ORIENTED_EDGE('',*,*,#216,.F.) ;
#455=ORIENTED_EDGE('',*,*,#194,.F.) ;
#476=ORIENTED_EDGE('',*,*,#469,.F.) ;
#477=ORIENTED_EDGE('',*,*,#474,.F.) ;
#478=ORIENTED_EDGE('',*,*,#289,.T.) ;
#479=ORIENTED_EDGE('',*,*,#431,.F.) ;
#500=ORIENTED_EDGE('',*,*,#493,.T.) ;
#501=ORIENTED_EDGE('',*,*,#349,.T.) ;
#502=ORIENTED_EDGE('',*,*,#474,.T.) ;
#503=ORIENTED_EDGE('',*,*,#498,.F.) ;
#524=ORIENTED_EDGE('',*,*,#437,.F.) ;
#525=ORIENTED_EDGE('',*,*,#325,.T.) ;
#526=ORIENTED_EDGE('',*,*,#517,.F.) ;
#527=ORIENTED_EDGE('',*,*,#522,.F.) ;
#541=ORIENTED_EDGE('',*,*,#517,.T.) ;
#542=ORIENTED_EDGE('',*,*,#354,.T.) ;
#543=ORIENTED_EDGE('',*,*,#493,.F.) ;
#544=ORIENTED_EDGE('',*,*,#539,.F.) ;
#558=ORIENTED_EDGE('',*,*,#398,.F.) ;
#559=ORIENTED_EDGE('',*,*,#556,.T.) ;
#560=ORIENTED_EDGE('',*,*,#469,.T.) ;
#561=ORIENTED_EDGE('',*,*,#427,.T.) ;
#575=ORIENTED_EDGE('',*,*,#522,.T.) ;
#576=ORIENTED_EDGE('',*,*,#573,.F.) ;
#577=ORIENTED_EDGE('',*,*,#377,.F.) ;
#578=ORIENTED_EDGE('',*,*,#442,.T.) ;
#587=ORIENTED_EDGE('',*,*,#573,.T.) ;
#588=ORIENTED_EDGE('',*,*,#539,.T.) ;
#589=ORIENTED_EDGE('',*,*,#498,.T.) ;
#590=ORIENTED_EDGE('',*,*,#556,.F.) ;
#591=ORIENTED_EDGE('',*,*,#391,.F.) ;
#592=ORIENTED_EDGE('',*,*,#384,.F.) ;
#274=FACE_BOUND('',#271,.T.) ;
#414=FACE_BOUND('',#411,.T.) ;
#456=FACE_BOUND('',#453,.T.) ;
#51=CLOSED_SHELL('Closed Shell',(#91,#108,#132,#163,#175,#206,#223,#275,#306,#337,#363,#415,#457,#481,#505,#529,#546,#563,#580,#594)) ;
#59=VECTOR('Line Direction',#58,1.) ;
#75=VECTOR('Line Direction',#74,1.) ;
#149=VECTOR('Line Direction',#148,1.) ;
#154=VECTOR('Line Direction',#153,1.) ;
#183=VECTOR('Line Direction',#182,1.) ;
#197=VECTOR('Line Direction',#196,1.) ;
#231=VECTOR('Line Direction',#230,1.) ;
#240=VECTOR('Line Direction',#239,1.) ;
#261=VECTOR('Line Direction',#260,1.) ;
#283=VECTOR('Line Direction',#282,1.) ;
#321=VECTOR('Line Direction',#320,1.) ;
#371=VECTOR('Line Direction',#370,1.) ;
#394=VECTOR('Line Direction',#393,1.) ;
#401=VECTOR('Line Direction',#400,1.) ;
#465=VECTOR('Line Direction',#464,1.) ;
#472=VECTOR('Line Direction',#471,1.) ;
#489=VECTOR('Line Direction',#488,1.) ;
#513=VECTOR('Line Direction',#512,1.) ;
#520=VECTOR('Line Direction',#519,1.) ;
#596=ADVANCED_BREP_SHAPE_REPRESENTATION('NONE',(#595),#46) ;
#49=SHAPE_REPRESENTATION(' ',(#48),#46) ;
#91=ADVANCED_FACE('Corps principal',(#90),#56,.F.) ;
#108=ADVANCED_FACE('Corps principal',(#107),#56,.F.) ;
#132=ADVANCED_FACE('Corps principal',(#131),#113,.F.) ;
#163=ADVANCED_FACE('Corps principal',(#162),#137,.F.) ;
#175=ADVANCED_FACE('Corps principal',(#174),#137,.F.) ;
#206=ADVANCED_FACE('Corps principal',(#205),#180,.F.) ;
#223=ADVANCED_FACE('Corps principal',(#222),#211,.F.) ;
#275=ADVANCED_FACE('Corps principal',(#270,#274),#228,.T.) ;
#306=ADVANCED_FACE('Corps principal',(#305),#280,.T.) ;
#337=ADVANCED_FACE('Corps principal',(#336),#311,.T.) ;
#363=ADVANCED_FACE('Corps principal',(#362),#342,.T.) ;
#415=ADVANCED_FACE('Corps principal',(#410,#414),#368,.F.) ;
#457=ADVANCED_FACE('Corps principal',(#452,#456),#420,.T.) ;
#481=ADVANCED_FACE('Corps principal',(#480),#462,.F.) ;
#505=ADVANCED_FACE('Corps principal',(#504),#486,.T.) ;
#529=ADVANCED_FACE('Corps principal',(#528),#510,.T.) ;
#546=ADVANCED_FACE('Corps principal',(#545),#534,.T.) ;
#563=ADVANCED_FACE('Corps principal',(#562),#551,.T.) ;
#580=ADVANCED_FACE('Corps principal',(#579),#568,.T.) ;
#594=ADVANCED_FACE('Corps principal',(#593),#585,.T.) ;
#4=APPLICATION_PROTOCOL_DEFINITION('international standard','config_control_design',1994,#1) ;
#32=APPROVAL_DATE_TIME(#13,#21) ;
#428=B_SPLINE_CURVE_WITH_KNOTS('',1,(#429,#430),.UNSPECIFIED.,.F.,.U.,(2,2),(0.5,7.5),.UNSPECIFIED.) ;
#432=B_SPLINE_CURVE_WITH_KNOTS('',1,(#433,#434),.UNSPECIFIED.,.F.,.U.,(2,2),(0.5,7.5),.UNSPECIFIED.) ;
#595=MANIFOLD_SOLID_BREP('Corps principal',#51) ;
#11=CALENDAR_DATE(2022,25,11) ;
#30=CC_DESIGN_APPROVAL(#21,(#16,#6,#14)) ;
#18=CC_DESIGN_DATE_AND_TIME_ASSIGNMENT(#13,#17,(#16)) ;
#29=CC_DESIGN_DATE_AND_TIME_ASSIGNMENT(#13,#28,(#14)) ;
#17=DATE_TIME_ROLE('classification_date') ;
#28=DATE_TIME_ROLE('creation_date') ;
#27=CC_DESIGN_PERSON_AND_ORGANIZATION_ASSIGNMENT(#25,#26,(#16)) ;
#33=CC_DESIGN_PERSON_AND_ORGANIZATION_ASSIGNMENT(#25,#34,(#6)) ;
#35=CC_DESIGN_PERSON_AND_ORGANIZATION_ASSIGNMENT(#25,#36,(#6,#14)) ;
#37=CC_DESIGN_PERSON_AND_ORGANIZATION_ASSIGNMENT(#25,#38,(#5)) ;
#26=PERSON_AND_ORGANIZATION_ROLE('classification_officer') ;
#34=PERSON_AND_ORGANIZATION_ROLE('design_supplier') ;
#36=PERSON_AND_ORGANIZATION_ROLE('creator') ;
#38=PERSON_AND_ORGANIZATION_ROLE('design_owner') ;
#39=CC_DESIGN_SECURITY_CLASSIFICATION(#16,(#6)) ;
#69=CIRCLE('generated circle',#68,1.) ;
#83=CIRCLE('generated circle',#82,1.) ;
#95=CIRCLE('generated circle',#94,1.) ;
#100=CIRCLE('generated circle',#99,1.) ;
#117=CIRCLE('generated circle',#116,1.75) ;
#126=CIRCLE('generated circle',#125,1.75) ;
#141=CIRCLE('generated circle',#140,1.75) ;
#167=CIRCLE('generated circle',#166,1.75) ;
#191=CIRCLE('generated circle',#190,2.25) ;
#215=CIRCLE('generated circle',#214,2.25) ;
#248=CIRCLE('generated circle',#247,3.5) ;
#255=CIRCLE('generated circle',#254,3.5) ;
#293=CIRCLE('generated circle',#292,0.5) ;
#298=CIRCLE('generated circle',#297,0.5) ;
#315=CIRCLE('generated circle',#314,0.5) ;
#329=CIRCLE('generated circle',#328,0.5) ;
#346=CIRCLE('generated circle',#345,4.) ;
#353=CIRCLE('generated circle',#352,4.) ;
#381=CIRCLE('generated circle',#380,3.5) ;
#388=CIRCLE('generated circle',#387,3.5) ;
#424=CIRCLE('generated circle',#423,0.5) ;
#441=CIRCLE('generated circle',#440,0.5) ;
#497=CIRCLE('generated circle',#496,4.) ;
#538=CIRCLE('generated circle',#537,4.) ;
#555=CIRCLE('generated circle',#554,0.5) ;
#572=CIRCLE('generated circle',#571,0.5) ;
#180=CONICAL_SURFACE('Cone',#179,0.,0.785398163397) ;
#211=CONICAL_SURFACE('Cone',#210,0.,0.785398163397) ;
#597=SHAPE_REPRESENTATION_RELATIONSHIP(' ',' ',#49,#596) ;
#601=SHAPE_REPRESENTATION_RELATIONSHIP(' ',' ',#49,#599) ;
#56=CYLINDRICAL_SURFACE('generated cylinder',#55,1.) ;
#137=CYLINDRICAL_SURFACE('generated cylinder',#136,1.75) ;
#280=CYLINDRICAL_SURFACE('generated cylinder',#279,0.5) ;
#311=CYLINDRICAL_SURFACE('generated cylinder',#310,0.5) ;
#486=CYLINDRICAL_SURFACE('generated cylinder',#485,4.) ;
#534=CYLINDRICAL_SURFACE('generated cylinder',#533,4.) ;
#551=CYLINDRICAL_SURFACE('generated cylinder',#550,0.5) ;
#568=CYLINDRICAL_SURFACE('generated cylinder',#567,0.5) ;
#342=TOROIDAL_SURFACE('homeo Torus',#341,3.5,0.5) ;
#585=TOROIDAL_SURFACE('homeo Torus',#584,3.5,0.5) ;
#3=DESIGN_CONTEXT(' ',#1,'design') ;
#65=EDGE_CURVE('',#62,#64,#60,.F.) ;
#72=EDGE_CURVE('',#62,#71,#69,.T.) ;
#79=EDGE_CURVE('',#71,#78,#76,.F.) ;
#84=EDGE_CURVE('',#64,#78,#83,.T.) ;
#96=EDGE_CURVE('',#71,#62,#95,.T.) ;
#101=EDGE_CURVE('',#78,#64,#100,.T.) ;
#122=EDGE_CURVE('',#119,#121,#117,.T.) ;
#127=EDGE_CURVE('',#121,#119,#126,.T.) ;
#146=EDGE_CURVE('',#143,#145,#141,.F.) ;
#151=EDGE_CURVE('',#119,#145,#150,.F.) ;
#156=EDGE_CURVE('',#121,#143,#155,.F.) ;
#168=EDGE_CURVE('',#145,#143,#167,.F.) ;
#187=EDGE_CURVE('',#145,#186,#184,.T.) ;
#194=EDGE_CURVE('',#186,#193,#191,.T.) ;
#199=EDGE_CURVE('',#143,#193,#198,.T.) ;
#216=EDGE_CURVE('',#193,#186,#215,.T.) ;
#237=EDGE_CURVE('',#234,#236,#232,.F.) ;
#244=EDGE_CURVE('',#243,#234,#241,.T.) ;
#251=EDGE_CURVE('',#250,#243,#248,.F.) ;
#258=EDGE_CURVE('',#257,#250,#255,.F.) ;
#263=EDGE_CURVE('',#236,#257,#262,.F.) ;
#289=EDGE_CURVE('',#286,#288,#284,.T.) ;
#294=EDGE_CURVE('',#286,#243,#293,.T.) ;
#299=EDGE_CURVE('',#234,#288,#298,.F.) ;
#318=EDGE_CURVE('',#317,#257,#315,.F.) ;
#325=EDGE_CURVE('',#324,#317,#322,.F.) ;
#330=EDGE_CURVE('',#324,#236,#329,.F.) ;
#349=EDGE_CURVE('',#348,#286,#346,.F.) ;
#354=EDGE_CURVE('',#317,#348,#353,.F.) ;
#377=EDGE_CURVE('',#374,#376,#372,.T.) ;
#384=EDGE_CURVE('',#376,#383,#381,.F.) ;
#391=EDGE_CURVE('',#383,#390,#388,.F.) ;
#398=EDGE_CURVE('',#390,#397,#395,.T.) ;
#403=EDGE_CURVE('',#374,#397,#402,.F.) ;
#427=EDGE_CURVE('',#426,#397,#424,.F.) ;
#431=EDGE_CURVE('',#426,#288,#428,.F.) ;
#437=EDGE_CURVE('',#324,#436,#432,.F.) ;
#442=EDGE_CURVE('',#374,#436,#441,.F.) ;
#469=EDGE_CURVE('',#468,#426,#466,.T.) ;
#474=EDGE_CURVE('',#286,#468,#473,.F.) ;
#493=EDGE_CURVE('',#492,#348,#490,.T.) ;
#498=EDGE_CURVE('',#492,#468,#497,.F.) ;
#517=EDGE_CURVE('',#516,#317,#514,.T.) ;
#522=EDGE_CURVE('',#436,#516,#521,.T.) ;
#539=EDGE_CURVE('',#516,#492,#538,.F.) ;
#556=EDGE_CURVE('',#390,#468,#555,.T.) ;
#573=EDGE_CURVE('',#376,#516,#572,.T.) ;
#85=EDGE_LOOP('',(#86,#87,#88,#89)) ;
#102=EDGE_LOOP('',(#103,#104,#105,#106)) ;
#128=EDGE_LOOP('',(#129,#130)) ;
#157=EDGE_LOOP('',(#158,#159,#160,#161)) ;
#169=EDGE_LOOP('',(#170,#171,#172,#173)) ;
#200=EDGE_LOOP('',(#201,#202,#203,#204)) ;
#217=EDGE_LOOP('',(#218,#219,#220,#221)) ;
#264=EDGE_LOOP('',(#265,#266,#267,#268,#269)) ;
#271=EDGE_LOOP('',(#272,#273)) ;
#300=EDGE_LOOP('',(#301,#302,#303,#304)) ;
#331=EDGE_LOOP('',(#332,#333,#334,#335)) ;
#355=EDGE_LOOP('',(#356,#357,#358,#359,#360,#361)) ;
#404=EDGE_LOOP('',(#405,#406,#407,#408,#409)) ;
#411=EDGE_LOOP('',(#412,#413)) ;
#443=EDGE_LOOP('',(#444,#445,#446,#447,#448,#449,#450,#451)) ;
#453=EDGE_LOOP('',(#454,#455)) ;
#475=EDGE_LOOP('',(#476,#477,#478,#479)) ;
#499=EDGE_LOOP('',(#500,#501,#502,#503)) ;
#523=EDGE_LOOP('',(#524,#525,#526,#527)) ;
#540=EDGE_LOOP('',(#541,#542,#543,#544)) ;
#557=EDGE_LOOP('',(#558,#559,#560,#561)) ;
#574=EDGE_LOOP('',(#575,#576,#577,#578)) ;
#586=EDGE_LOOP('',(#587,#588,#589,#590,#591,#592)) ;
#90=FACE_OUTER_BOUND('',#85,.T.) ;
#107=FACE_OUTER_BOUND('',#102,.T.) ;
#131=FACE_OUTER_BOUND('',#128,.T.) ;
#162=FACE_OUTER_BOUND('',#157,.T.) ;
#174=FACE_OUTER_BOUND('',#169,.T.) ;
#205=FACE_OUTER_BOUND('',#200,.T.) ;
#222=FACE_OUTER_BOUND('',#217,.T.) ;
#270=FACE_OUTER_BOUND('',#264,.T.) ;
#305=FACE_OUTER_BOUND('',#300,.T.) ;
#336=FACE_OUTER_BOUND('',#331,.T.) ;
#362=FACE_OUTER_BOUND('',#355,.T.) ;
#410=FACE_OUTER_BOUND('',#404,.T.) ;
#452=FACE_OUTER_BOUND('',#443,.T.) ;
#480=FACE_OUTER_BOUND('',#475,.T.) ;
#504=FACE_OUTER_BOUND('',#499,.T.) ;
#528=FACE_OUTER_BOUND('',#523,.T.) ;
#545=FACE_OUTER_BOUND('',#540,.T.) ;
#562=FACE_OUTER_BOUND('',#557,.T.) ;
#579=FACE_OUTER_BOUND('',#574,.T.) ;
#593=FACE_OUTER_BOUND('',#586,.T.) ;
#600=GEOMETRIC_SET('NONE',(#598)) ;
#599=GEOMETRICALLY_BOUNDED_SURFACE_SHAPE_REPRESENTATION('NONE',(#600),#46) ;
#45=UNCERTAINTY_MEASURE_WITH_UNIT(LENGTH_MEASURE(0.005),#41,'distance_accuracy_value','CONFUSED CURVE UNCERTAINTY') ;
#60=LINE('Line',#57,#59) ;
#76=LINE('Line',#73,#75) ;
#150=LINE('Line',#147,#149) ;
#155=LINE('Line',#152,#154) ;
#184=LINE('Line',#181,#183) ;
#198=LINE('Line',#195,#197) ;
#232=LINE('Line',#229,#231) ;
#241=LINE('Line',#238,#240) ;
#262=LINE('Line',#259,#261) ;
#284=LINE('Line',#281,#283) ;
#322=LINE('Line',#319,#321) ;
#372=LINE('Line',#369,#371) ;
#395=LINE('Line',#392,#394) ;
#402=LINE('Line',#399,#401) ;
#466=LINE('Line',#463,#465) ;
#473=LINE('Line',#470,#472) ;
#490=LINE('Line',#487,#489) ;
#514=LINE('Line',#511,#513) ;
#521=LINE('Line',#518,#520) ;
#2=MECHANICAL_CONTEXT(' ',#1,'mechanical') ;
#24=PERSONAL_ADDRESS(' ',' ',' ',' ',' ',' ',' ',' ',' ',' ',' ',' ',(#22),' ') ;
#113=PLANE('Plane',#112) ;
#228=PLANE('Plane',#227) ;
#368=PLANE('Plane',#367) ;
#420=PLANE('Plane',#419) ;
#462=PLANE('Plane',#461) ;
#510=PLANE('Plane',#509) ;
#43=PLANE_ANGLE_MEASURE_WITH_UNIT(PLANE_ANGLE_MEASURE(0.0174532925199),#42) ;
#7=PRODUCT_CATEGORY('part',$) ;
#9=PRODUCT_CATEGORY_RELATIONSHIP(' ',' ',#7,#8) ;
#6=PRODUCT_DEFINITION_FORMATION_WITH_SPECIFIED_SOURCE('',' ',#5,.NOT_KNOWN.) ;
#8=PRODUCT_RELATED_PRODUCT_CATEGORY('detail',$,(#5)) ;
#50=SHAPE_DEFINITION_REPRESENTATION(#40,#49) ;
#62=VERTEX_POINT('',#61) ;
#64=VERTEX_POINT('',#63) ;
#71=VERTEX_POINT('',#70) ;
#78=VERTEX_POINT('',#77) ;
#119=VERTEX_POINT('',#118) ;
#121=VERTEX_POINT('',#120) ;
#143=VERTEX_POINT('',#142) ;
#145=VERTEX_POINT('',#144) ;
#186=VERTEX_POINT('',#185) ;
#193=VERTEX_POINT('',#192) ;
#234=VERTEX_POINT('',#233) ;
#236=VERTEX_POINT('',#235) ;
#243=VERTEX_POINT('',#242) ;
#250=VERTEX_POINT('',#249) ;
#257=VERTEX_POINT('',#256) ;
#286=VERTEX_POINT('',#285) ;
#288=VERTEX_POINT('',#287) ;
#317=VERTEX_POINT('',#316) ;
#324=VERTEX_POINT('',#323) ;
#348=VERTEX_POINT('',#347) ;
#374=VERTEX_POINT('',#373) ;
#376=VERTEX_POINT('',#375) ;
#383=VERTEX_POINT('',#382) ;
#390=VERTEX_POINT('',#389) ;
#397=VERTEX_POINT('',#396) ;
#426=VERTEX_POINT('',#425) ;
#436=VERTEX_POINT('',#435) ;
#468=VERTEX_POINT('',#467) ;
#492=VERTEX_POINT('',#491) ;
#516=VERTEX_POINT('',#515) ;
#41=(LENGTH_UNIT()NAMED_UNIT(*)SI_UNIT(.MILLI.,.METRE.)) ;
#42=(NAMED_UNIT(*)PLANE_ANGLE_UNIT()SI_UNIT($,.RADIAN.)) ;
#44=(NAMED_UNIT(*)SI_UNIT($,.STERADIAN.)SOLID_ANGLE_UNIT()) ;
#46=(GEOMETRIC_REPRESENTATION_CONTEXT(3)GLOBAL_UNCERTAINTY_ASSIGNED_CONTEXT((#45))GLOBAL_UNIT_ASSIGNED_CONTEXT((#41,#42,#44))REPRESENTATION_CONTEXT(' ',' ')) ;
ENDSEC;
END-ISO-10303-21;
