ISO-10303-21;
HEADER;
FILE_DESCRIPTION (( 'STEP AP214' ),
    '1' );
FILE_NAME ('TUBE.STEP',
    '2022-11-08T16:54:23',
    ( '' ),
    ( '' ),
    'SwSTEP 2.0',
    'SolidWorks 2014',
    '' );
FILE_SCHEMA (( 'AUTOMOTIVE_DESIGN' ));
ENDSEC;

DATA;
#1 = PRODUCT ( 'TUBE', 'TUBE', '', ( #132 ) ) ;
#2 = ADVANCED_BREP_SHAPE_REPRESENTATION ( 'TUBE', ( #39, #307 ), #98 ) ;
#3 = CIRCLE ( 'NONE', #12, 7.600000000000002300 ) ;
#4 = FACE_OUTER_BOUND ( 'NONE', #274, .T. ) ;
#5 = AXIS2_PLACEMENT_3D ( 'NONE', #47, #300, #314 ) ;
#6 = EDGE_LOOP ( 'NONE', ( #29, #34 ) ) ;
#7 = ORIENTED_EDGE ( 'NONE', *, *, #163, .F. ) ;
#8 = CARTESIAN_POINT ( 'NONE',  ( 0.0000000000000000000, -7.600000000000005900, 8.000000000000000000 ) ) ;
#9 = ADVANCED_FACE ( 'NONE', ( #299 ), #248, .F. ) ;
#10 = PRODUCT_DEFINITION_CONTEXT ( 'detailed design', #131, 'design' ) ;
#11 = VERTEX_POINT ( 'NONE', #265 ) ;
#12 = AXIS2_PLACEMENT_3D ( 'NONE', #177, #146, #118 ) ;
#13 = FACE_OUTER_BOUND ( 'NONE', #243, .T. ) ;
#14 = ADVANCED_FACE ( 'NONE', ( #4 ), #33, .T. ) ;
#15 = CARTESIAN_POINT ( 'NONE',  ( 0.0000000000000000000, 8.000000000000000000, -7.600000000000002300 ) ) ;
#16 = CARTESIAN_POINT ( 'NONE',  ( 9.797174393178825700E-016, -7.600000000000005900, -8.000000000000000000 ) ) ;
#17 = EDGE_CURVE ( 'NONE', #18, #122, #3, .T. ) ;
#18 = VERTEX_POINT ( 'NONE', #290 ) ;
#19 = CARTESIAN_POINT ( 'NONE',  ( 0.0000000000000000000, 8.000000000000000000, 0.0000000000000000000 ) ) ;
#20 = ORIENTED_EDGE ( 'NONE', *, *, #215, .F. ) ;
#21 = DIRECTION ( 'NONE',  ( 0.0000000000000000000, 0.0000000000000000000, 1.000000000000000000 ) ) ;
#22 = PRESENTATION_LAYER_ASSIGNMENT (  '', '', ( #179 ) ) ;
#23 = EDGE_LOOP ( 'NONE', ( #40, #308, #45, #140 ) ) ;
#24 = SURFACE_STYLE_FILL_AREA ( #151 ) ;
#25 = DIRECTION ( 'NONE',  ( 0.0000000000000000000, 1.000000000000000000, 0.0000000000000000000 ) ) ;
#26 = ORIENTED_EDGE ( 'NONE', *, *, #283, .F. ) ;
#27 = ORIENTED_EDGE ( 'NONE', *, *, #143, .F. ) ;
#28 = VECTOR ( 'NONE', #306, 1000.000000000000000 ) ;
#29 = ORIENTED_EDGE ( 'NONE', *, *, #17, .T. ) ;
#30 = ORIENTED_EDGE ( 'NONE', *, *, #57, .T. ) ;
#31 = DIRECTION ( 'NONE',  ( 0.0000000000000000000, 0.0000000000000000000, 1.000000000000000000 ) ) ;
#32 = CIRCLE ( 'NONE', #75, 8.000000000000000000 ) ;
#33 = CYLINDRICAL_SURFACE ( 'NONE', #297, 8.000000000000000000 ) ;
#34 = ORIENTED_EDGE ( 'NONE', *, *, #62, .T. ) ;
#35 = ADVANCED_FACE ( 'NONE', ( #84 ), #250, .F. ) ;
#36 = CARTESIAN_POINT ( 'NONE',  ( 0.0000000000000000000, -8.000000000000000000, 0.0000000000000000000 ) ) ;
#37 = VERTEX_POINT ( 'NONE', #165 ) ;
#38 = CARTESIAN_POINT ( 'NONE',  ( 7.347880794884120700E-016, 8.000000000000000000, -6.000000000000000900 ) ) ;
#39 = MANIFOLD_SOLID_BREP ( 'P1.2', #252 ) ;
#40 = ORIENTED_EDGE ( 'NONE', *, *, #100, .T. ) ;
#41 = VERTEX_POINT ( 'NONE', #161 ) ;
#42 = FACE_OUTER_BOUND ( 'NONE', #281, .T. ) ;
#43 = UNCERTAINTY_MEASURE_WITH_UNIT (LENGTH_MEASURE( 1.000000000000000100E-005 ), #145, 'distance_accuracy_value', 'NONE');
#44 = PRESENTATION_LAYER_ASSIGNMENT (  '', '', ( #85 ) ) ;
#45 = ORIENTED_EDGE ( 'NONE', *, *, #143, .T. ) ;
#46 = ORIENTED_EDGE ( 'NONE', *, *, #17, .F. ) ;
#47 = CARTESIAN_POINT ( 'NONE',  ( 0.0000000000000000000, 8.000000000000000000, 0.0000000000000000000 ) ) ;
#48 = SURFACE_STYLE_USAGE ( .BOTH. , #159 ) ;
#49 = CARTESIAN_POINT ( 'NONE',  ( 0.0000000000000000000, -8.000000000000000000, 0.0000000000000000000 ) ) ;
#50 = ADVANCED_FACE ( 'NONE', ( #144 ), #207, .T. ) ;
#51 = FACE_OUTER_BOUND ( 'NONE', #6, .T. ) ;
#52 = ORIENTED_EDGE ( 'NONE', *, *, #283, .T. ) ;
#53 = DIRECTION ( 'NONE',  ( 0.0000000000000000000, 1.000000000000000000, 0.0000000000000000000 ) ) ;
#54 = CARTESIAN_POINT ( 'NONE',  ( 0.0000000000000000000, 8.000000000000000000, 0.0000000000000000000 ) ) ;
#55 = FACE_OUTER_BOUND ( 'NONE', #23, .T. ) ;
#56 = DIRECTION ( 'NONE',  ( 0.0000000000000000000, 0.0000000000000000000, 1.000000000000000000 ) ) ;
#57 = EDGE_CURVE ( 'NONE', #193, #41, #286, .T. ) ;
#58 =( GEOMETRIC_REPRESENTATION_CONTEXT ( 3 ) GLOBAL_UNCERTAINTY_ASSIGNED_CONTEXT ( ( #186 ) ) GLOBAL_UNIT_ASSIGNED_CONTEXT ( ( #108, #136, #134 ) ) REPRESENTATION_CONTEXT ( 'NONE', 'WORKASPACE' ) );
#59 = VERTEX_POINT ( 'NONE', #130 ) ;
#60 = CARTESIAN_POINT ( 'NONE',  ( 0.0000000000000000000, -8.000000000000000000, 0.0000000000000000000 ) ) ;
#61 = EDGE_LOOP ( 'NONE', ( #304, #240 ) ) ;
#62 = EDGE_CURVE ( 'NONE', #122, #18, #217, .T. ) ;
#63 = PRODUCT_DEFINITION_FORMATION_WITH_SPECIFIED_SOURCE ( 'ANY', '', #1, .NOT_KNOWN. ) ;
#64 = CONICAL_SURFACE ( 'NONE', #103, 8.000000000000000000, 0.7853981633974526100 ) ;
#65 = EDGE_CURVE ( 'NONE', #71, #37, #166, .T. ) ;
#66 = ORIENTED_EDGE ( 'NONE', *, *, #224, .T. ) ;
#67 = ORIENTED_EDGE ( 'NONE', *, *, #65, .F. ) ;
#68 = LINE ( 'NONE', #8, #105 ) ;
#69 = EDGE_LOOP ( 'NONE', ( #313, #305 ) ) ;
#70 = ORIENTED_EDGE ( 'NONE', *, *, #121, .T. ) ;
#71 = VERTEX_POINT ( 'NONE', #91 ) ;
#72 = COLOUR_RGB ( '',0.7921568627450980000, 0.8196078431372548800, 0.9333333333333333500 ) ;
#73 = CIRCLE ( 'NONE', #295, 6.000000000000000900 ) ;
#74 = DIRECTION ( 'NONE',  ( -0.0000000000000000000, -1.000000000000000000, -0.0000000000000000000 ) ) ;
#75 = AXIS2_PLACEMENT_3D ( 'NONE', #194, #192, #191 ) ;
#76 = ORIENTED_EDGE ( 'NONE', *, *, #203, .F. ) ;
#77 = AXIS2_PLACEMENT_3D ( 'NONE', #19, #119, #128 ) ;
#78 = CIRCLE ( 'NONE', #260, 7.600000000000002300 ) ;
#79 = FACE_BOUND ( 'NONE', #69, .T. ) ;
#80 = ADVANCED_FACE ( 'NONE', ( #55 ), #285, .T. ) ;
#81 = CONICAL_SURFACE ( 'NONE', #5, 7.600000000000002300, 0.7853981633974482800 ) ;
#82 = EDGE_LOOP ( 'NONE', ( #139, #148, #27, #218 ) ) ;
#83 = VECTOR ( 'NONE', #261, 1000.000000000000000 ) ;
#84 = FACE_OUTER_BOUND ( 'NONE', #278, .T. ) ;
#85 = STYLED_ITEM ( 'NONE', ( #86 ), #39 ) ;
#86 = PRESENTATION_STYLE_ASSIGNMENT (( #48 ) ) ;
#87 = ORIENTED_EDGE ( 'NONE', *, *, #215, .T. ) ;
#88 = DIRECTION ( 'NONE',  ( 0.0000000000000000000, 1.000000000000000000, 0.0000000000000000000 ) ) ;
#89 = LINE ( 'NONE', #16, #83 ) ;
#90 = VECTOR ( 'NONE', #273, 1000.000000000000100 ) ;
#91 = CARTESIAN_POINT ( 'NONE',  ( 0.0000000000000000000, -8.000000000000000000, 6.000000000000000900 ) ) ;
#92 = CIRCLE ( 'NONE', #268, 8.000000000000000000 ) ;
#93 = FACE_OUTER_BOUND ( 'NONE', #178, .T. ) ;
#94 = EDGE_CURVE ( 'NONE', #213, #106, #238, .T. ) ;
#95 = SHAPE_DEFINITION_REPRESENTATION ( #175, #2 ) ;
#96 = LINE ( 'NONE', #223, #133 ) ;
#97 = FILL_AREA_STYLE ('',( #162 ) ) ;
#98 =( GEOMETRIC_REPRESENTATION_CONTEXT ( 3 ) GLOBAL_UNCERTAINTY_ASSIGNED_CONTEXT ( ( #102 ) ) GLOBAL_UNIT_ASSIGNED_CONTEXT ( ( #164, #160, #156 ) ) REPRESENTATION_CONTEXT ( 'NONE', 'WORKASPACE' ) );
#99 = DIRECTION ( 'NONE',  ( 0.0000000000000000000, 0.0000000000000000000, 1.000000000000000000 ) ) ;
#100 = EDGE_CURVE ( 'NONE', #59, #138, #116, .T. ) ;
#101 = CONICAL_SURFACE ( 'NONE', #206, 8.000000000000000000, 0.7853981633974526100 ) ;
#102 = UNCERTAINTY_MEASURE_WITH_UNIT (LENGTH_MEASURE( 1.000000000000000100E-005 ), #164, 'distance_accuracy_value', 'NONE');
#103 = AXIS2_PLACEMENT_3D ( 'NONE', #257, #231, #239 ) ;
#104 = DIRECTION ( 'NONE',  ( 0.0000000000000000000, 1.000000000000000000, 0.0000000000000000000 ) ) ;
#105 = VECTOR ( 'NONE', #303, 1000.000000000000000 ) ;
#106 = VERTEX_POINT ( 'NONE', #38 ) ;
#107 = ADVANCED_FACE ( 'NONE', ( #93 ), #81, .T. ) ;
#108 =( LENGTH_UNIT ( ) NAMED_UNIT ( * ) SI_UNIT ( .MILLI., .METRE. ) );
#109 = ORIENTED_EDGE ( 'NONE', *, *, #125, .F. ) ;
#110 = CARTESIAN_POINT ( 'NONE',  ( 0.0000000000000000000, 8.000000000000000000, 0.0000000000000000000 ) ) ;
#111 = CIRCLE ( 'NONE', #253, 8.000000000000000000 ) ;
#112 = DIRECTION ( 'NONE',  ( 0.0000000000000000000, 1.000000000000000000, 0.0000000000000000000 ) ) ;
#113 = EDGE_LOOP ( 'NONE', ( #7, #87, #293, #180 ) ) ;
#114 = CARTESIAN_POINT ( 'NONE',  ( 0.0000000000000000000, -7.600000000000005900, 0.0000000000000000000 ) ) ;
#115 = MECHANICAL_DESIGN_GEOMETRIC_PRESENTATION_REPRESENTATION (  '', ( #179 ), #256 ) ;
#116 = CIRCLE ( 'NONE', #171, 8.000000000000000000 ) ;
#117 = ORIENTED_EDGE ( 'NONE', *, *, #100, .F. ) ;
#118 = DIRECTION ( 'NONE',  ( 0.0000000000000000000, 0.0000000000000000000, 1.000000000000000000 ) ) ;
#119 = DIRECTION ( 'NONE',  ( 0.0000000000000000000, -1.000000000000000000, 0.0000000000000000000 ) ) ;
#120 = EDGE_CURVE ( 'NONE', #122, #138, #89, .T. ) ;
#121 = EDGE_CURVE ( 'NONE', #41, #11, #230, .T. ) ;
#122 = VERTEX_POINT ( 'NONE', #309 ) ;
#123 = VECTOR ( 'NONE', #187, 1000.000000000000000 ) ;
#124 = PRODUCT_DEFINITION ( 'UNKNOWN', '', #63, #10 ) ;
#125 = EDGE_CURVE ( 'NONE', #18, #59, #68, .T. ) ;
#126 = DIRECTION ( 'NONE',  ( 0.0000000000000000000, 0.0000000000000000000, 1.000000000000000000 ) ) ;
#127 = EDGE_CURVE ( 'NONE', #138, #59, #92, .T. ) ;
#128 = DIRECTION ( 'NONE',  ( 0.0000000000000000000, 0.0000000000000000000, -1.000000000000000000 ) ) ;
#129 = APPLICATION_PROTOCOL_DEFINITION ( 'draft international standard', 'automotive_design', 1998, #131 ) ;
#130 = CARTESIAN_POINT ( 'NONE',  ( 0.0000000000000000000, -7.600000000000005900, 8.000000000000000000 ) ) ;
#131 = APPLICATION_CONTEXT ( 'automotive_design' ) ;
#132 = PRODUCT_CONTEXT ( 'NONE', #152, 'mechanical' ) ;
#133 = VECTOR ( 'NONE', #208, 1000.000000000000000 ) ;
#134 =( NAMED_UNIT ( * ) SI_UNIT ( $, .STERADIAN. ) SOLID_ANGLE_UNIT ( ) );
#135 = DIRECTION ( 'NONE',  ( 1.000000000000000000, 0.0000000000000000000, 0.0000000000000000000 ) ) ;
#136 =( NAMED_UNIT ( * ) PLANE_ANGLE_UNIT ( ) SI_UNIT ( $, .RADIAN. ) );
#137 = DIRECTION ( 'NONE',  ( 0.0000000000000000000, 0.0000000000000000000, 1.000000000000000000 ) ) ;
#138 = VERTEX_POINT ( 'NONE', #312 ) ;
#139 = ORIENTED_EDGE ( 'NONE', *, *, #57, .F. ) ;
#140 = ORIENTED_EDGE ( 'NONE', *, *, #287, .F. ) ;
#141 =( NAMED_UNIT ( * ) SI_UNIT ( $, .STERADIAN. ) SOLID_ANGLE_UNIT ( ) );
#142 =( NAMED_UNIT ( * ) PLANE_ANGLE_UNIT ( ) SI_UNIT ( $, .RADIAN. ) );
#143 = EDGE_CURVE ( 'NONE', #11, #247, #111, .T. ) ;
#144 = FACE_OUTER_BOUND ( 'NONE', #82, .T. ) ;
#145 =( LENGTH_UNIT ( ) NAMED_UNIT ( * ) SI_UNIT ( .MILLI., .METRE. ) );
#146 = DIRECTION ( 'NONE',  ( -0.0000000000000000000, -1.000000000000000000, -0.0000000000000000000 ) ) ;
#147 = SURFACE_STYLE_FILL_AREA ( #97 ) ;
#148 = ORIENTED_EDGE ( 'NONE', *, *, #172, .T. ) ;
#149 = SURFACE_STYLE_USAGE ( .BOTH. , #150 ) ;
#150 = SURFACE_SIDE_STYLE ('',( #24 ) ) ;
#151 = FILL_AREA_STYLE ('',( #182 ) ) ;
#152 = APPLICATION_CONTEXT ( 'automotive_design' ) ;
#153 = FACE_BOUND ( 'NONE', #61, .T. ) ;
#154 = APPLICATION_PROTOCOL_DEFINITION ( 'draft international standard', 'automotive_design', 1998, #152 ) ;
#155 = EDGE_CURVE ( 'NONE', #71, #213, #259, .T. ) ;
#156 =( NAMED_UNIT ( * ) SI_UNIT ( $, .STERADIAN. ) SOLID_ANGLE_UNIT ( ) );
#157 = EDGE_CURVE ( 'NONE', #106, #213, #202, .T. ) ;
#158 = AXIS2_PLACEMENT_3D ( 'NONE', #110, #104, #99 ) ;
#159 = SURFACE_SIDE_STYLE ('',( #147 ) ) ;
#160 =( NAMED_UNIT ( * ) PLANE_ANGLE_UNIT ( ) SI_UNIT ( $, .RADIAN. ) );
#161 = CARTESIAN_POINT ( 'NONE',  ( 0.0000000000000000000, 8.000000000000000000, -7.600000000000002300 ) ) ;
#162 = FILL_AREA_STYLE_COLOUR ( '', #271 ) ;
#163 = EDGE_CURVE ( 'NONE', #37, #71, #73, .T. ) ;
#164 =( LENGTH_UNIT ( ) NAMED_UNIT ( * ) SI_UNIT ( .MILLI., .METRE. ) );
#165 = CARTESIAN_POINT ( 'NONE',  ( 7.347880794884120700E-016, -8.000000000000000000, -6.000000000000000900 ) ) ;
#166 = CIRCLE ( 'NONE', #220, 6.000000000000000900 ) ;
#167 = CARTESIAN_POINT ( 'NONE',  ( 0.0000000000000000000, 0.0000000000000000000, 0.0000000000000000000 ) ) ;
#168 = DIRECTION ( 'NONE',  ( 0.0000000000000000000, 0.0000000000000000000, 1.000000000000000000 ) ) ;
#169 = CARTESIAN_POINT ( 'NONE',  ( 0.0000000000000000000, -8.000000000000000000, 0.0000000000000000000 ) ) ;
#170 = DIRECTION ( 'NONE',  ( 0.0000000000000000000, 1.000000000000000000, 0.0000000000000000000 ) ) ;
#171 = AXIS2_PLACEMENT_3D ( 'NONE', #114, #205, #31 ) ;
#172 = EDGE_CURVE ( 'NONE', #193, #247, #302, .T. ) ;
#173 = ORIENTED_EDGE ( 'NONE', *, *, #287, .T. ) ;
#174 = AXIS2_PLACEMENT_3D ( 'NONE', #60, #112, #126 ) ;
#175 = PRODUCT_DEFINITION_SHAPE ( 'NONE', 'NONE',  #124 ) ;
#176 = CARTESIAN_POINT ( 'NONE',  ( 0.0000000000000000000, 8.000000000000000000, 0.0000000000000000000 ) ) ;
#177 = CARTESIAN_POINT ( 'NONE',  ( 0.0000000000000000000, -8.000000000000000000, 0.0000000000000000000 ) ) ;
#178 = EDGE_LOOP ( 'NONE', ( #198, #26, #70, #269 ) ) ;
#179 = STYLED_ITEM ( 'NONE', ( #275 ), #2 ) ;
#180 = ORIENTED_EDGE ( 'NONE', *, *, #155, .F. ) ;
#181 = MECHANICAL_DESIGN_GEOMETRIC_PRESENTATION_REPRESENTATION (  '', ( #85 ), #58 ) ;
#182 = FILL_AREA_STYLE_COLOUR ( '', #72 ) ;
#183 = ORIENTED_EDGE ( 'NONE', *, *, #120, .T. ) ;
#184 = CARTESIAN_POINT ( 'NONE',  ( 0.0000000000000000000, -8.000000000000000000, 8.000000000000000000 ) ) ;
#185 = DIRECTION ( 'NONE',  ( 0.0000000000000000000, 0.0000000000000000000, 1.000000000000000000 ) ) ;
#186 = UNCERTAINTY_MEASURE_WITH_UNIT (LENGTH_MEASURE( 1.000000000000000100E-005 ), #108, 'distance_accuracy_value', 'NONE');
#187 = DIRECTION ( 'NONE',  ( 0.0000000000000000000, 1.000000000000000000, 0.0000000000000000000 ) ) ;
#188 = AXIS2_PLACEMENT_3D ( 'NONE', #214, #201, #199 ) ;
#189 = CARTESIAN_POINT ( 'NONE',  ( 0.0000000000000000000, -8.000000000000000000, 0.0000000000000000000 ) ) ;
#190 = DIRECTION ( 'NONE',  ( 0.0000000000000000000, 0.0000000000000000000, 1.000000000000000000 ) ) ;
#191 = DIRECTION ( 'NONE',  ( 0.0000000000000000000, 0.0000000000000000000, 1.000000000000000000 ) ) ;
#192 = DIRECTION ( 'NONE',  ( 0.0000000000000000000, -1.000000000000000000, 0.0000000000000000000 ) ) ;
#193 = VERTEX_POINT ( 'NONE', #255 ) ;
#194 = CARTESIAN_POINT ( 'NONE',  ( 0.0000000000000000000, 7.600000000000002300, 0.0000000000000000000 ) ) ;
#195 = CARTESIAN_POINT ( 'NONE',  ( 0.0000000000000000000, -7.600000000000005900, 0.0000000000000000000 ) ) ;
#196 = DIRECTION ( 'NONE',  ( -0.0000000000000000000, 1.000000000000000000, -0.0000000000000000000 ) ) ;
#197 = CARTESIAN_POINT ( 'NONE',  ( 0.0000000000000000000, 7.600000000000002300, 8.000000000000000000 ) ) ;
#198 = ORIENTED_EDGE ( 'NONE', *, *, #172, .F. ) ;
#199 = DIRECTION ( 'NONE',  ( 0.0000000000000000000, -0.0000000000000000000, 1.000000000000000000 ) ) ;
#200 = AXIS2_PLACEMENT_3D ( 'NONE', #49, #74, #56 ) ;
#201 = DIRECTION ( 'NONE',  ( 0.0000000000000000000, 1.000000000000000000, 0.0000000000000000000 ) ) ;
#202 = CIRCLE ( 'NONE', #270, 6.000000000000000900 ) ;
#203 = EDGE_CURVE ( 'NONE', #138, #11, #241, .T. ) ;
#204 = ORIENTED_EDGE ( 'NONE', *, *, #120, .F. ) ;
#205 = DIRECTION ( 'NONE',  ( -0.0000000000000000000, 1.000000000000000000, -0.0000000000000000000 ) ) ;
#206 = AXIS2_PLACEMENT_3D ( 'NONE', #195, #196, #190 ) ;
#207 = CONICAL_SURFACE ( 'NONE', #77, 7.600000000000002300, 0.7853981633974482800 ) ;
#208 = DIRECTION ( 'NONE',  ( 0.0000000000000000000, 1.000000000000000000, 0.0000000000000000000 ) ) ;
#209 = LINE ( 'NONE', #184, #123 ) ;
#210 = ADVANCED_FACE ( 'NONE', ( #42 ), #64, .T. ) ;
#211 = DIRECTION ( 'NONE',  ( 0.0000000000000000000, 0.0000000000000000000, 1.000000000000000000 ) ) ;
#212 = ADVANCED_FACE ( 'NONE', ( #227, #153 ), #225, .T. ) ;
#213 = VERTEX_POINT ( 'NONE', #228 ) ;
#214 = CARTESIAN_POINT ( 'NONE',  ( 0.0000000000000000000, -8.000000000000000000, 0.0000000000000000000 ) ) ;
#215 = EDGE_CURVE ( 'NONE', #37, #106, #96, .T. ) ;
#216 = DIRECTION ( 'NONE',  ( 0.0000000000000000000, 1.000000000000000000, 0.0000000000000000000 ) ) ;
#217 = CIRCLE ( 'NONE', #200, 7.600000000000002300 ) ;
#218 = ORIENTED_EDGE ( 'NONE', *, *, #121, .F. ) ;
#219 = PLANE ( 'NONE',  #188 ) ;
#220 = AXIS2_PLACEMENT_3D ( 'NONE', #36, #88, #235 ) ;
#221 = DIRECTION ( 'NONE',  ( 0.0000000000000000000, -0.0000000000000000000, 1.000000000000000000 ) ) ;
#222 = ADVANCED_FACE ( 'NONE', ( #51, #79 ), #219, .F. ) ;
#223 = CARTESIAN_POINT ( 'NONE',  ( 7.347880794884120700E-016, -8.000000000000000000, -6.000000000000000900 ) ) ;
#224 = EDGE_CURVE ( 'NONE', #247, #11, #32, .T. ) ;
#225 = PLANE ( 'NONE',  #284 ) ;
#226 = VECTOR ( 'NONE', #311, 1000.000000000000100 ) ;
#227 = FACE_OUTER_BOUND ( 'NONE', #298, .T. ) ;
#228 = CARTESIAN_POINT ( 'NONE',  ( 0.0000000000000000000, 8.000000000000000000, 6.000000000000000900 ) ) ;
#229 = CARTESIAN_POINT ( 'NONE',  ( 0.0000000000000000000, 8.000000000000000000, 0.0000000000000000000 ) ) ;
#230 = LINE ( 'NONE', #15, #226 ) ;
#231 = DIRECTION ( 'NONE',  ( -0.0000000000000000000, 1.000000000000000000, -0.0000000000000000000 ) ) ;
#232 = ORIENTED_EDGE ( 'NONE', *, *, #94, .T. ) ;
#233 = ORIENTED_EDGE ( 'NONE', *, *, #155, .T. ) ;
#234 = DIRECTION ( 'NONE',  ( 0.0000000000000000000, 1.000000000000000000, 0.0000000000000000000 ) ) ;
#235 = DIRECTION ( 'NONE',  ( 0.0000000000000000000, 0.0000000000000000000, 1.000000000000000000 ) ) ;
#236 = AXIS2_PLACEMENT_3D ( 'NONE', #189, #25, #211 ) ;
#237 = DIRECTION ( 'NONE',  ( 0.0000000000000000000, 1.000000000000000000, 0.0000000000000000000 ) ) ;
#238 = CIRCLE ( 'NONE', #263, 6.000000000000000900 ) ;
#239 = DIRECTION ( 'NONE',  ( 0.0000000000000000000, 0.0000000000000000000, 1.000000000000000000 ) ) ;
#240 = ORIENTED_EDGE ( 'NONE', *, *, #157, .F. ) ;
#241 = LINE ( 'NONE', #242, #310 ) ;
#242 = CARTESIAN_POINT ( 'NONE',  ( 9.797174393178825700E-016, -8.000000000000000000, -8.000000000000000000 ) ) ;
#243 = EDGE_LOOP ( 'NONE', ( #301, #183, #117, #109 ) ) ;
#244 = DIRECTION ( 'NONE',  ( 0.0000000000000000000, 0.0000000000000000000, 1.000000000000000000 ) ) ;
#245 = DIRECTION ( 'NONE',  ( 0.0000000000000000000, 1.000000000000000000, 0.0000000000000000000 ) ) ;
#246 = PRODUCT_RELATED_PRODUCT_CATEGORY ( 'part', '', ( #1 ) ) ;
#247 = VERTEX_POINT ( 'NONE', #197 ) ;
#248 = CYLINDRICAL_SURFACE ( 'NONE', #236, 6.000000000000000900 ) ;
#249 = CARTESIAN_POINT ( 'NONE',  ( 0.0000000000000000000, -8.000000000000000000, 0.0000000000000000000 ) ) ;
#250 = CYLINDRICAL_SURFACE ( 'NONE', #267, 6.000000000000000900 ) ;
#251 = DIRECTION ( 'NONE',  ( 0.0000000000000000000, 1.000000000000000000, 0.0000000000000000000 ) ) ;
#252 = CLOSED_SHELL ( 'NONE', ( #279, #50, #9, #80, #14, #222, #212, #35, #107, #210 ) ) ;
#253 = AXIS2_PLACEMENT_3D ( 'NONE', #280, #277, #276 ) ;
#254 = ORIENTED_EDGE ( 'NONE', *, *, #125, .T. ) ;
#255 = CARTESIAN_POINT ( 'NONE',  ( 9.552245033349358500E-016, 8.000000000000000000, 7.600000000000002300 ) ) ;
#256 =( GEOMETRIC_REPRESENTATION_CONTEXT ( 3 ) GLOBAL_UNCERTAINTY_ASSIGNED_CONTEXT ( ( #43 ) ) GLOBAL_UNIT_ASSIGNED_CONTEXT ( ( #145, #142, #141 ) ) REPRESENTATION_CONTEXT ( 'NONE', 'WORKASPACE' ) );
#257 = CARTESIAN_POINT ( 'NONE',  ( 0.0000000000000000000, -7.600000000000005900, 0.0000000000000000000 ) ) ;
#258 = DIRECTION ( 'NONE',  ( 0.0000000000000000000, 0.0000000000000000000, 1.000000000000000000 ) ) ;
#259 = LINE ( 'NONE', #282, #28 ) ;
#260 = AXIS2_PLACEMENT_3D ( 'NONE', #176, #170, #168 ) ;
#261 = DIRECTION ( 'NONE',  ( 8.659560562354969800E-017, 0.7071067811865444600, -0.7071067811865505700 ) ) ;
#262 = DIRECTION ( 'NONE',  ( 0.0000000000000000000, 0.0000000000000000000, 1.000000000000000000 ) ) ;
#263 = AXIS2_PLACEMENT_3D ( 'NONE', #54, #53, #21 ) ;
#264 = DIRECTION ( 'NONE',  ( 0.0000000000000000000, 1.000000000000000000, 0.0000000000000000000 ) ) ;
#265 = CARTESIAN_POINT ( 'NONE',  ( 9.797174393178825700E-016, 7.600000000000002300, -8.000000000000000000 ) ) ;
#266 = CARTESIAN_POINT ( 'NONE',  ( 0.0000000000000000000, 8.000000000000000000, 0.0000000000000000000 ) ) ;
#267 = AXIS2_PLACEMENT_3D ( 'NONE', #169, #216, #185 ) ;
#268 = AXIS2_PLACEMENT_3D ( 'NONE', #294, #289, #288 ) ;
#269 = ORIENTED_EDGE ( 'NONE', *, *, #224, .F. ) ;
#270 = AXIS2_PLACEMENT_3D ( 'NONE', #266, #264, #262 ) ;
#271 = COLOUR_RGB ( '',0.6470588235294118000, 0.5176470588235293500, 0.0000000000000000000 ) ;
#272 = CARTESIAN_POINT ( 'NONE',  ( 9.307315673519889400E-016, 8.000000000000000000, 7.600000000000002300 ) ) ;
#273 = DIRECTION ( 'NONE',  ( 8.659560562354932900E-017, -0.7071067811865474600, 0.7071067811865474600 ) ) ;
#274 = EDGE_LOOP ( 'NONE', ( #76, #296, #173, #66 ) ) ;
#275 = PRESENTATION_STYLE_ASSIGNMENT (( #149 ) ) ;
#276 = DIRECTION ( 'NONE',  ( 0.0000000000000000000, 0.0000000000000000000, 1.000000000000000000 ) ) ;
#277 = DIRECTION ( 'NONE',  ( 0.0000000000000000000, -1.000000000000000000, 0.0000000000000000000 ) ) ;
#278 = EDGE_LOOP ( 'NONE', ( #20, #67, #233, #232 ) ) ;
#279 = ADVANCED_FACE ( 'NONE', ( #13 ), #101, .T. ) ;
#280 = CARTESIAN_POINT ( 'NONE',  ( 0.0000000000000000000, 7.600000000000002300, 0.0000000000000000000 ) ) ;
#281 = EDGE_LOOP ( 'NONE', ( #204, #46, #254, #291 ) ) ;
#282 = CARTESIAN_POINT ( 'NONE',  ( 0.0000000000000000000, -8.000000000000000000, 6.000000000000000900 ) ) ;
#283 = EDGE_CURVE ( 'NONE', #41, #193, #78, .T. ) ;
#284 = AXIS2_PLACEMENT_3D ( 'NONE', #229, #234, #221 ) ;
#285 = CYLINDRICAL_SURFACE ( 'NONE', #174, 8.000000000000000000 ) ;
#286 = CIRCLE ( 'NONE', #158, 7.600000000000002300 ) ;
#287 = EDGE_CURVE ( 'NONE', #59, #247, #209, .T. ) ;
#288 = DIRECTION ( 'NONE',  ( 0.0000000000000000000, 0.0000000000000000000, 1.000000000000000000 ) ) ;
#289 = DIRECTION ( 'NONE',  ( -0.0000000000000000000, 1.000000000000000000, -0.0000000000000000000 ) ) ;
#290 = CARTESIAN_POINT ( 'NONE',  ( 0.0000000000000000000, -8.000000000000000000, 7.600000000000002300 ) ) ;
#291 = ORIENTED_EDGE ( 'NONE', *, *, #127, .F. ) ;
#292 = CARTESIAN_POINT ( 'NONE',  ( 0.0000000000000000000, -8.000000000000000000, 0.0000000000000000000 ) ) ;
#293 = ORIENTED_EDGE ( 'NONE', *, *, #157, .T. ) ;
#294 = CARTESIAN_POINT ( 'NONE',  ( 0.0000000000000000000, -7.600000000000005900, 0.0000000000000000000 ) ) ;
#295 = AXIS2_PLACEMENT_3D ( 'NONE', #249, #245, #244 ) ;
#296 = ORIENTED_EDGE ( 'NONE', *, *, #127, .T. ) ;
#297 = AXIS2_PLACEMENT_3D ( 'NONE', #292, #251, #258 ) ;
#298 = EDGE_LOOP ( 'NONE', ( #52, #30 ) ) ;
#299 = FACE_OUTER_BOUND ( 'NONE', #113, .T. ) ;
#300 = DIRECTION ( 'NONE',  ( 0.0000000000000000000, -1.000000000000000000, 0.0000000000000000000 ) ) ;
#301 = ORIENTED_EDGE ( 'NONE', *, *, #62, .F. ) ;
#302 = LINE ( 'NONE', #272, #90 ) ;
#303 = DIRECTION ( 'NONE',  ( 0.0000000000000000000, 0.7071067811865444600, 0.7071067811865505700 ) ) ;
#304 = ORIENTED_EDGE ( 'NONE', *, *, #94, .F. ) ;
#305 = ORIENTED_EDGE ( 'NONE', *, *, #163, .T. ) ;
#306 = DIRECTION ( 'NONE',  ( 0.0000000000000000000, 1.000000000000000000, 0.0000000000000000000 ) ) ;
#307 = AXIS2_PLACEMENT_3D ( 'NONE', #167, #137, #135 ) ;
#308 = ORIENTED_EDGE ( 'NONE', *, *, #203, .T. ) ;
#309 = CARTESIAN_POINT ( 'NONE',  ( 9.552245033349358500E-016, -8.000000000000000000, -7.600000000000002300 ) ) ;
#310 = VECTOR ( 'NONE', #237, 1000.000000000000000 ) ;
#311 = DIRECTION ( 'NONE',  ( 0.0000000000000000000, -0.7071067811865474600, -0.7071067811865474600 ) ) ;
#312 = CARTESIAN_POINT ( 'NONE',  ( 9.797174393178825700E-016, -7.600000000000005900, -8.000000000000000000 ) ) ;
#313 = ORIENTED_EDGE ( 'NONE', *, *, #65, .T. ) ;
#314 = DIRECTION ( 'NONE',  ( 0.0000000000000000000, 0.0000000000000000000, -1.000000000000000000 ) ) ;
ENDSEC;
END-ISO-10303-21;
