ISO-10303-21;
HEADER;
/* Generated by software containing ST-Developer
 * from STEP Tools, Inc. (www.steptools.com) 
 */

FILE_DESCRIPTION(
/* description */ ('Alibre Inc.'),
/* implementation_level */ '2;1');

FILE_NAME(
/* name */ 'export0',
/* time_stamp */ '2022-11-28T09:12:55+01:00',
/* author */ (''),
/* organization */ (''),
/* preprocessor_version */ 'ST-DEVELOPER v14',
/* originating_system */ 'Alibre',
/* authorisation */ '');

FILE_SCHEMA (('CONFIG_CONTROL_DESIGN'));
ENDSEC;

DATA;
#10=MECHANICAL_CONTEXT('detailed design',#18,'mechanical');
#11=PRODUCT_RELATED_PRODUCT_CATEGORY('d\X\E9tail','',(#98));
#12=CC_DESIGN_SECURITY_CLASSIFICATION(#14,(#97));
#13=SECURITY_CLASSIFICATION_LEVEL('unclassified');
#14=SECURITY_CLASSIFICATION('nom','Niveau de s\X\E9curit\X\E9 pour la v
ersion',#13);
#15=SHAPE_DEFINITION_REPRESENTATION(#16,#322);
#16=PRODUCT_DEFINITION_SHAPE('','Desc. D\X\E9finition',#96);
#17=APPLICATION_PROTOCOL_DEFINITION('AP definition status',
'config_control_design',1994,#18);
#18=APPLICATION_CONTEXT(
'control the configuration of three dimensional design');
#19=DESIGN_CONTEXT('detailed design',#18,'design');
#20=PERSON_AND_ORGANIZATION_ROLE('creator');
#21=PERSON_AND_ORGANIZATION_ROLE('classification_officer');
#22=PERSON_AND_ORGANIZATION_ROLE('creator');
#23=PERSON_AND_ORGANIZATION_ROLE('design_supplier');
#24=PERSON_AND_ORGANIZATION_ROLE('design_owner');
#25=CC_DESIGN_PERSON_AND_ORGANIZATION_ASSIGNMENT(#57,#20,(#96));
#26=CC_DESIGN_PERSON_AND_ORGANIZATION_ASSIGNMENT(#60,#21,(#14));
#27=CC_DESIGN_PERSON_AND_ORGANIZATION_ASSIGNMENT(#61,#22,(#97));
#28=CC_DESIGN_PERSON_AND_ORGANIZATION_ASSIGNMENT(#62,#23,(#97));
#29=CC_DESIGN_PERSON_AND_ORGANIZATION_ASSIGNMENT(#63,#24,(#98));
#30=DATE_TIME_ROLE('creation_date');
#31=DATE_TIME_ROLE('classification_date');
#32=CC_DESIGN_DATE_AND_TIME_ASSIGNMENT(#86,#30,(#96));
#33=CC_DESIGN_DATE_AND_TIME_ASSIGNMENT(#89,#31,(#14));
#34=CC_DESIGN_APPROVAL(#93,(#96));
#35=CC_DESIGN_APPROVAL(#94,(#97));
#36=CC_DESIGN_APPROVAL(#95,(#14));
#37=APPROVAL_PERSON_ORGANIZATION(#56,#93,#64);
#38=APPROVAL_PERSON_ORGANIZATION(#58,#94,#65);
#39=APPROVAL_PERSON_ORGANIZATION(#59,#95,#66);
#40=ORGANIZATION('DEFINITION_APPROVEDBY_ORG_ID',
'DEFINITION_APPROVEDBY_ORG_NAME','DEFINITION_APPROVEDBY_ORG_DESCR');
#41=ORGANIZATION('DEF_CREATOR_ORG_ID','DEF_CREATOR_ORG_NAME',
'DEF_CREATOR_ORG_DESCR');
#42=ORGANIZATION('ID_ORG_APPROBATEUR','NOM_ORG_APPROBATEUR',
'DESCR_ORG_APPROBATEUR');
#43=ORGANIZATION('SECURITY_APPROVEDBY_ORG_ID',
'SECURITY_APPROVEDBY_ORG_NAME','SECURITY_APPROVEDBY_ORG_DESCR');
#44=ORGANIZATION('CLASSOFFICER_ORG_ID','CLASSOFFICER_ORG_NAME',
'CLASSOFFICER_ORG_DESCR');
#45=ORGANIZATION('CODE_SOCIETE_CREATEUR','NOM_SOCIETE_CREATEUR',
'DESCRIPTION_SOCIETE_CREATEUR');
#46=ORGANIZATION('SUPPLIER_ORG_ID','SUPPLIER_ORG_NAME',
'SUPPLIER_ORG_DESCR');
#47=ORGANIZATION('PROPRIETAIRE_SOCIETE_ID','PROPRIETAIRE_SOCIETE_NOM',
'PROPRIETAIRE_SOCIETE_DESCRIPTION');
#48=PERSON('ID_Validateur D\X\E9finition',
'DEFINITION_APPROVEDBY_LASTNAME','DEFINITION_APPROVEDBY_FIRSTNAME',$,$,$);
#49=PERSON('DEF_createrID','DEF_CREATOR_LASTNAME',
'DEF_CREATOR_FIRSTNAME',$,$,$);
#50=PERSON('ID Validateur','NOM_APPROBATEUR','PRENOM_APPROBATEUR',$,$,$);
#51=PERSON('SECURITY_approverID','SECURITY_LASTNAME',
'SECURITY_APPROVEDBY_FIRSTNAME',$,$,$);
#52=PERSON('classifierID','CLASSOFFICER_LASTNAME',
'CLASSOFFICER_FIRSTNAME',$,$,$);
#53=PERSON('Code cr\X\E9ateur','NOM_CREATEUR','PRENOM_CREATEUR',$,$,$);
#54=PERSON('Code fournisseur','SUPPLIER_LASTNAME','SUPPLIER_FIRSTNAME',$,
$,$);
#55=PERSON('ID propri\X\E9taire','PROPRIETAIRE_NOM',
'PROPRIETAIRE_PRENOM',$,$,$);
#56=PERSON_AND_ORGANIZATION(#48,#40);
#57=PERSON_AND_ORGANIZATION(#49,#41);
#58=PERSON_AND_ORGANIZATION(#50,#42);
#59=PERSON_AND_ORGANIZATION(#51,#43);
#60=PERSON_AND_ORGANIZATION(#52,#44);
#61=PERSON_AND_ORGANIZATION(#53,#45);
#62=PERSON_AND_ORGANIZATION(#54,#46);
#63=PERSON_AND_ORGANIZATION(#55,#47);
#64=APPROVAL_ROLE('definition_approval');
#65=APPROVAL_ROLE('version_approval');
#66=APPROVAL_ROLE('security_approval');
#67=APPROVAL_DATE_TIME(#85,#93);
#68=APPROVAL_DATE_TIME(#87,#94);
#69=APPROVAL_DATE_TIME(#88,#95);
#70=COORDINATED_UNIVERSAL_TIME_OFFSET(1,0,.AHEAD.);
#71=COORDINATED_UNIVERSAL_TIME_OFFSET(1,0,.AHEAD.);
#72=COORDINATED_UNIVERSAL_TIME_OFFSET(1,0,.AHEAD.);
#73=COORDINATED_UNIVERSAL_TIME_OFFSET(1,0,.AHEAD.);
#74=COORDINATED_UNIVERSAL_TIME_OFFSET(1,0,.AHEAD.);
#75=LOCAL_TIME(15,22,48.,#70);
#76=LOCAL_TIME(15,22,48.,#71);
#77=LOCAL_TIME(15,22,48.,#72);
#78=LOCAL_TIME(15,22,48.,#73);
#79=LOCAL_TIME(15,22,48.,#74);
#80=CALENDAR_DATE(2022,16,11);
#81=CALENDAR_DATE(2022,16,11);
#82=CALENDAR_DATE(2022,16,11);
#83=CALENDAR_DATE(2022,16,11);
#84=CALENDAR_DATE(2022,16,11);
#85=DATE_AND_TIME(#80,#75);
#86=DATE_AND_TIME(#81,#76);
#87=DATE_AND_TIME(#82,#77);
#88=DATE_AND_TIME(#83,#78);
#89=DATE_AND_TIME(#84,#79);
#90=APPROVAL_STATUS('not_yet_approved');
#91=APPROVAL_STATUS('not_yet_approved');
#92=APPROVAL_STATUS('not_yet_approved');
#93=APPROVAL(#90,'Concept valid\X\E9');
#94=APPROVAL(#91,'version approuv\X\E9e');
#95=APPROVAL(#92,'security approval');
#96=PRODUCT_DEFINITION('ID D\X\E9finition','Desc. D\X\E9finition',#97,#19);
#97=PRODUCT_DEFINITION_FORMATION_WITH_SPECIFIED_SOURCE(
'REFERENCE_PRODUIT','DESCR_VERSION_PRODUIT',#98,.NOT_KNOWN.);
#98=PRODUCT('ID_1',
'Testing the Lubricity Track Force of Catheters Part 2','',(#10));
#99=(
LENGTH_UNIT()
NAMED_UNIT(*)
SI_UNIT(.CENTI.,.METRE.)
);
#100=(
NAMED_UNIT(*)
PLANE_ANGLE_UNIT()
SI_UNIT($,.RADIAN.)
);
#101=(
NAMED_UNIT(*)
SI_UNIT($,.STERADIAN.)
SOLID_ANGLE_UNIT()
);
#102=UNCERTAINTY_MEASURE_WITH_UNIT(LENGTH_MEASURE(1.E-006),#99,
'DISTANCE_ACCURACY_VALUE',
'Maximum model space distance between geometric entities at asserted co
nnectivities');
#103=(
GEOMETRIC_REPRESENTATION_CONTEXT(3)
GLOBAL_UNCERTAINTY_ASSIGNED_CONTEXT((#102))
GLOBAL_UNIT_ASSIGNED_CONTEXT((#101,#100,#99))
REPRESENTATION_CONTEXT('ID1','3D')
);
#104=PLANE('',#231);
#105=PLANE('',#235);
#106=PLANE('',#242);
#107=PLANE('',#243);
#108=VECTOR('',#248,1.);
#109=VECTOR('',#251,1.);
#110=VECTOR('',#253,1.);
#111=VECTOR('',#254,1.);
#112=VECTOR('',#255,1.);
#113=VECTOR('',#260,1.);
#114=VECTOR('',#264,1.);
#115=VECTOR('',#265,1.);
#116=LINE('',#284,#108);
#117=LINE('',#288,#109);
#118=LINE('',#290,#110);
#119=LINE('',#292,#111);
#120=LINE('',#294,#112);
#121=LINE('',#298,#113);
#122=LINE('',#302,#114);
#123=LINE('',#303,#115);
#124=VERTEX_POINT('',#282);
#125=VERTEX_POINT('',#283);
#126=VERTEX_POINT('',#285);
#127=VERTEX_POINT('',#287);
#128=VERTEX_POINT('',#291);
#129=VERTEX_POINT('',#293);
#130=VERTEX_POINT('',#297);
#131=VERTEX_POINT('',#299);
#132=VERTEX_POINT('',#306);
#133=VERTEX_POINT('',#308);
#134=VERTEX_POINT('',#311);
#135=VERTEX_POINT('',#313);
#136=CIRCLE('',#229,0.499999999999985);
#137=CIRCLE('',#230,0.499999999999985);
#138=CIRCLE('',#233,0.499999999999999);
#139=CIRCLE('',#234,0.499999999999999);
#140=CIRCLE('',#237,0.225);
#141=CIRCLE('',#238,0.225);
#142=CIRCLE('',#240,0.225);
#143=CIRCLE('',#241,0.225);
#144=EDGE_CURVE('',#124,#125,#136,.T.);
#145=EDGE_CURVE('',#126,#125,#116,.T.);
#146=EDGE_CURVE('',#126,#127,#137,.T.);
#147=EDGE_CURVE('',#127,#124,#117,.T.);
#148=EDGE_CURVE('',#125,#128,#118,.T.);
#149=EDGE_CURVE('',#129,#128,#119,.T.);
#150=EDGE_CURVE('',#129,#126,#120,.T.);
#151=EDGE_CURVE('',#128,#130,#138,.T.);
#152=EDGE_CURVE('',#131,#130,#121,.T.);
#153=EDGE_CURVE('',#131,#129,#139,.T.);
#154=EDGE_CURVE('',#130,#124,#122,.T.);
#155=EDGE_CURVE('',#127,#131,#123,.T.);
#156=EDGE_CURVE('',#132,#132,#140,.T.);
#157=EDGE_CURVE('',#133,#133,#141,.T.);
#158=EDGE_CURVE('',#134,#134,#142,.T.);
#159=EDGE_CURVE('',#135,#135,#143,.T.);
#160=ORIENTED_EDGE('',*,*,#144,.T.);
#161=ORIENTED_EDGE('',*,*,#145,.F.);
#162=ORIENTED_EDGE('',*,*,#146,.T.);
#163=ORIENTED_EDGE('',*,*,#147,.T.);
#164=ORIENTED_EDGE('',*,*,#148,.T.);
#165=ORIENTED_EDGE('',*,*,#149,.F.);
#166=ORIENTED_EDGE('',*,*,#150,.T.);
#167=ORIENTED_EDGE('',*,*,#145,.T.);
#168=ORIENTED_EDGE('',*,*,#151,.T.);
#169=ORIENTED_EDGE('',*,*,#152,.F.);
#170=ORIENTED_EDGE('',*,*,#153,.T.);
#171=ORIENTED_EDGE('',*,*,#149,.T.);
#172=ORIENTED_EDGE('',*,*,#154,.T.);
#173=ORIENTED_EDGE('',*,*,#147,.F.);
#174=ORIENTED_EDGE('',*,*,#155,.T.);
#175=ORIENTED_EDGE('',*,*,#152,.T.);
#176=ORIENTED_EDGE('',*,*,#156,.T.);
#177=ORIENTED_EDGE('',*,*,#157,.F.);
#178=ORIENTED_EDGE('',*,*,#158,.T.);
#179=ORIENTED_EDGE('',*,*,#159,.F.);
#180=ORIENTED_EDGE('',*,*,#158,.F.);
#181=ORIENTED_EDGE('',*,*,#156,.F.);
#182=ORIENTED_EDGE('',*,*,#144,.F.);
#183=ORIENTED_EDGE('',*,*,#154,.F.);
#184=ORIENTED_EDGE('',*,*,#151,.F.);
#185=ORIENTED_EDGE('',*,*,#148,.F.);
#186=ORIENTED_EDGE('',*,*,#159,.T.);
#187=ORIENTED_EDGE('',*,*,#157,.T.);
#188=ORIENTED_EDGE('',*,*,#155,.F.);
#189=ORIENTED_EDGE('',*,*,#146,.F.);
#190=ORIENTED_EDGE('',*,*,#150,.F.);
#191=ORIENTED_EDGE('',*,*,#153,.F.);
#192=EDGE_LOOP('',(#160,#161,#162,#163));
#193=EDGE_LOOP('',(#164,#165,#166,#167));
#194=EDGE_LOOP('',(#168,#169,#170,#171));
#195=EDGE_LOOP('',(#172,#173,#174,#175));
#196=EDGE_LOOP('',(#176));
#197=EDGE_LOOP('',(#177));
#198=EDGE_LOOP('',(#178));
#199=EDGE_LOOP('',(#179));
#200=EDGE_LOOP('',(#180));
#201=EDGE_LOOP('',(#181));
#202=EDGE_LOOP('',(#182,#183,#184,#185));
#203=EDGE_LOOP('',(#186));
#204=EDGE_LOOP('',(#187));
#205=EDGE_LOOP('',(#188,#189,#190,#191));
#206=FACE_BOUND('',#192,.T.);
#207=FACE_BOUND('',#193,.T.);
#208=FACE_BOUND('',#194,.T.);
#209=FACE_BOUND('',#195,.T.);
#210=FACE_BOUND('',#196,.T.);
#211=FACE_BOUND('',#197,.T.);
#212=FACE_BOUND('',#198,.T.);
#213=FACE_BOUND('',#199,.T.);
#214=FACE_BOUND('',#200,.T.);
#215=FACE_BOUND('',#201,.T.);
#216=FACE_BOUND('',#202,.T.);
#217=FACE_BOUND('',#203,.T.);
#218=FACE_BOUND('',#204,.T.);
#219=FACE_BOUND('',#205,.T.);
#220=ADVANCED_FACE('',(#206),#316,.T.);
#221=ADVANCED_FACE('',(#207),#104,.T.);
#222=ADVANCED_FACE('',(#208),#317,.T.);
#223=ADVANCED_FACE('',(#209),#105,.T.);
#224=ADVANCED_FACE('',(#210,#211),#318,.F.);
#225=ADVANCED_FACE('',(#212,#213),#319,.F.);
#226=ADVANCED_FACE('',(#214,#215,#216),#106,.T.);
#227=ADVANCED_FACE('',(#217,#218,#219),#107,.F.);
#228=AXIS2_PLACEMENT_3D('',#280,#244,#245);
#229=AXIS2_PLACEMENT_3D('',#281,#246,#247);
#230=AXIS2_PLACEMENT_3D('',#286,#249,#250);
#231=AXIS2_PLACEMENT_3D('',#289,#252,$);
#232=AXIS2_PLACEMENT_3D('',#295,#256,#257);
#233=AXIS2_PLACEMENT_3D('',#296,#258,#259);
#234=AXIS2_PLACEMENT_3D('',#300,#261,#262);
#235=AXIS2_PLACEMENT_3D('',#301,#263,$);
#236=AXIS2_PLACEMENT_3D('',#304,#266,#267);
#237=AXIS2_PLACEMENT_3D('',#305,#268,#269);
#238=AXIS2_PLACEMENT_3D('',#307,#270,#271);
#239=AXIS2_PLACEMENT_3D('',#309,#272,#273);
#240=AXIS2_PLACEMENT_3D('',#310,#274,#275);
#241=AXIS2_PLACEMENT_3D('',#312,#276,#277);
#242=AXIS2_PLACEMENT_3D('',#314,#278,$);
#243=AXIS2_PLACEMENT_3D('',#315,#279,$);
#244=DIRECTION('',(0.,0.,1.));
#245=DIRECTION('',(0.499999999999985,0.,0.));
#246=DIRECTION('',(0.,0.,-1.));
#247=DIRECTION('',(0.499999999999985,0.,0.));
#248=DIRECTION('',(0.,0.,1.));
#249=DIRECTION('',(0.,0.,1.));
#250=DIRECTION('',(0.499999999999985,0.,0.));
#251=DIRECTION('',(0.,0.,1.));
#252=DIRECTION('',(1.,0.,0.));
#253=DIRECTION('',(4.33761553807049E-015,-1.,0.));
#254=DIRECTION('',(0.,0.,1.));
#255=DIRECTION('',(0.,1.,0.));
#256=DIRECTION('',(0.,0.,1.));
#257=DIRECTION('',(0.499999999999999,0.,0.));
#258=DIRECTION('',(0.,0.,-1.));
#259=DIRECTION('',(0.499999999999999,0.,0.));
#260=DIRECTION('',(0.,0.,1.));
#261=DIRECTION('',(0.,0.,1.));
#262=DIRECTION('',(0.499999999999999,0.,0.));
#263=DIRECTION('',(-1.,4.33761553807049E-015,0.));
#264=DIRECTION('',(0.,1.,0.));
#265=DIRECTION('',(-4.33761553807049E-015,-1.,0.));
#266=DIRECTION('',(0.,0.,1.));
#267=DIRECTION('',(0.225,0.,0.));
#268=DIRECTION('',(0.,0.,1.));
#269=DIRECTION('',(0.225,0.,0.));
#270=DIRECTION('',(0.,0.,1.));
#271=DIRECTION('',(0.225,0.,0.));
#272=DIRECTION('',(0.,0.,1.));
#273=DIRECTION('',(0.225,0.,0.));
#274=DIRECTION('',(0.,0.,1.));
#275=DIRECTION('',(0.225,0.,0.));
#276=DIRECTION('',(0.,0.,1.));
#277=DIRECTION('',(0.225,0.,0.));
#278=DIRECTION('',(0.,0.,1.));
#279=DIRECTION('',(0.,0.,1.));
#280=CARTESIAN_POINT('',(-1.37667655053519E-014,1.97500000000717,0.));
#281=CARTESIAN_POINT('',(-1.37667655053519E-014,1.97500000000717,0.3));
#282=CARTESIAN_POINT('',(-0.499999999999999,1.97500000000717,0.3));
#283=CARTESIAN_POINT('',(0.499999999999971,1.97500000000717,0.3));
#284=CARTESIAN_POINT('',(0.499999999999971,1.97500000000717,0.));
#285=CARTESIAN_POINT('',(0.499999999999971,1.97500000000717,0.));
#286=CARTESIAN_POINT('',(-1.37667655053519E-014,1.97500000000717,0.));
#287=CARTESIAN_POINT('',(-0.499999999999999,1.97500000000717,0.));
#288=CARTESIAN_POINT('',(-0.499999999999999,1.97500000000717,0.));
#289=CARTESIAN_POINT('',(0.499999999999985,-1.26249999999275,0.));
#290=CARTESIAN_POINT('',(0.499999999999985,-1.24999999999275,0.3));
#291=CARTESIAN_POINT('',(0.499999999999985,-1.27499999999275,0.3));
#292=CARTESIAN_POINT('',(0.499999999999985,-1.27499999999275,0.));
#293=CARTESIAN_POINT('',(0.499999999999985,-1.27499999999275,0.));
#294=CARTESIAN_POINT('',(0.499999999999985,-1.27499999999275,0.));
#295=CARTESIAN_POINT('',(-1.37667655053519E-014,-1.27499999999275,0.));
#296=CARTESIAN_POINT('',(-1.37667655053519E-014,-1.27499999999275,0.3));
#297=CARTESIAN_POINT('',(-0.500000000000013,-1.27499999999275,0.3));
#298=CARTESIAN_POINT('',(-0.500000000000013,-1.27499999999275,0.));
#299=CARTESIAN_POINT('',(-0.500000000000013,-1.27499999999275,0.));
#300=CARTESIAN_POINT('',(-1.37667655053519E-014,-1.27499999999275,0.));
#301=CARTESIAN_POINT('',(-0.500000000000006,0.36250000000721,0.));
#302=CARTESIAN_POINT('',(-0.500000000000013,-1.24999999999275,0.3));
#303=CARTESIAN_POINT('',(-0.499999999999999,1.97500000000717,0.));
#304=CARTESIAN_POINT('',(-1.37667655053519E-014,1.97500000000717,0.));
#305=CARTESIAN_POINT('',(-1.37667655053519E-014,1.97500000000717,0.3));
#306=CARTESIAN_POINT('',(0.224999999999986,1.97500000000717,0.3));
#307=CARTESIAN_POINT('',(-1.37667655053519E-014,1.97500000000717,0.));
#308=CARTESIAN_POINT('',(0.224999999999986,1.97500000000717,0.));
#309=CARTESIAN_POINT('',(-1.37667655053519E-014,-1.27499999999275,0.));
#310=CARTESIAN_POINT('',(-1.37667655053519E-014,-1.27499999999275,0.3));
#311=CARTESIAN_POINT('',(0.224999999999986,-1.27499999999275,0.3));
#312=CARTESIAN_POINT('',(-1.37667655053519E-014,-1.27499999999275,0.));
#313=CARTESIAN_POINT('',(0.224999999999986,-1.27499999999275,0.));
#314=CARTESIAN_POINT('',(-1.3945029148798E-014,0.3500000000072,0.3));
#315=CARTESIAN_POINT('',(-1.3945029148798E-014,0.3500000000072,0.));
#316=CYLINDRICAL_SURFACE('',#228,0.499999999999985);
#317=CYLINDRICAL_SURFACE('',#232,0.499999999999999);
#318=CYLINDRICAL_SURFACE('',#236,0.225);
#319=CYLINDRICAL_SURFACE('',#239,0.225);
#320=CLOSED_SHELL('',(#220,#221,#222,#223,#224,#225,#226,#227));
#321=MANIFOLD_SOLID_BREP('',#320);
#322=ADVANCED_BREP_SHAPE_REPRESENTATION('',(#321),#103);
ENDSEC;
END-ISO-10303-21;
