ISO-10303-21;
HEADER;
FILE_DESCRIPTION( ( 'STEP AP203' ), '1' );
FILE_NAME( ' ', '  ', ( '  ' ), ( '  ' ), 'PSStep 10.1', '  ', '  ' );
FILE_SCHEMA( ( 'CONFIG_CONTROL_DESIGN' ) );
ENDSEC;
DATA;
#1 = DESIGN_CONTEXT( '', #27, 'design' );
#2 = APPLICATION_PROTOCOL_DEFINITION( 'INTERNATIONAL STANDARD', 'config_control_design', 1994, #27 );
#3 = PRODUCT_CATEGORY_RELATIONSHIP( 'NONE', 'NONE', #28, #29 );
#4 = DATE_AND_TIME( #30, #31 );
#5 = DATE_TIME_ROLE( 'creation_date' );
#6 = DATE_TIME_ROLE( 'classification_date' );
#7 = PERSON_AND_ORGANIZATION_ROLE( 'creator' );
#8 = PERSON_AND_ORGANIZATION_ROLE( 'design_supplier' );
#9 = PERSON_AND_ORGANIZATION_ROLE( 'classification_officer' );
#10 = PERSON_AND_ORGANIZATION_ROLE( 'design_owner' );
#11 = APPROVAL_PERSON_ORGANIZATION( #32, #33, #34 );
#12 = APPROVAL_DATE_TIME( #4, #33 );
#13 = CC_DESIGN_APPROVAL( #33, ( #35, #36, #37 ) );
#14 = CC_DESIGN_DATE_AND_TIME_ASSIGNMENT( #4, #5, ( #37 ) );
#15 = CC_DESIGN_DATE_AND_TIME_ASSIGNMENT( #4, #6, ( #35 ) );
#16 = CC_DESIGN_PERSON_AND_ORGANIZATION_ASSIGNMENT( #32, #10, ( #38 ) );
#17 = CC_DESIGN_PERSON_AND_ORGANIZATION_ASSIGNMENT( #32, #7, ( #37 ) );
#18 = CC_DESIGN_PERSON_AND_ORGANIZATION_ASSIGNMENT( #32, #7, ( #36 ) );
#19 = CC_DESIGN_PERSON_AND_ORGANIZATION_ASSIGNMENT( #32, #8, ( #36 ) );
#20 = CC_DESIGN_SECURITY_CLASSIFICATION( #35, ( #36 ) );
#21 = CC_DESIGN_PERSON_AND_ORGANIZATION_ASSIGNMENT( #32, #9, ( #35 ) );
#22 = SHAPE_DEFINITION_REPRESENTATION( #39, #40 );
#23 =  ( GEOMETRIC_REPRESENTATION_CONTEXT( 3 )GLOBAL_UNCERTAINTY_ASSIGNED_CONTEXT( ( #43 ) )GLOBAL_UNIT_ASSIGNED_CONTEXT( ( #45, #46, #47 ) )REPRESENTATION_CONTEXT( 'NONE', 'WORKSPACE' ) );
#27 = APPLICATION_CONTEXT( 'CONFIGURATION CONTROLLED 3D DESIGNS OF MECHANICAL PARTS AND ASSEMBLIES' );
#28 = PRODUCT_CATEGORY( 'part', 'NONE' );
#29 = PRODUCT_RELATED_PRODUCT_CATEGORY( 'detail', ' ', ( #38 ) );
#30 = CALENDAR_DATE( 2022, 3, 10 );
#31 = LOCAL_TIME( 9, 42, 2.00000000000000, #49 );
#32 = PERSON_AND_ORGANIZATION( #50, #51 );
#33 = APPROVAL( #52, 'SOLID MODEL' );
#34 = APPROVAL_ROLE( 'APPROVED' );
#35 = SECURITY_CLASSIFICATION( '', '', #53 );
#36 = PRODUCT_DEFINITION_FORMATION_WITH_SPECIFIED_SOURCE( ' ', 'NONE', #38, .NOT_KNOWN. );
#37 = PRODUCT_DEFINITION( 'NONE', 'NONE', #36, #1 );
#38 = PRODUCT( '1', '1', 'PART-1-DESC', ( #54 ) );
#39 = PRODUCT_DEFINITION_SHAPE( 'NONE', 'NONE', #37 );
#40 = ADVANCED_BREP_SHAPE_REPRESENTATION( '1', ( #55, #56 ), #23 );
#43 = UNCERTAINTY_MEASURE_WITH_UNIT( LENGTH_MEASURE( 0.00100000000000000 ), #45, '', '' );
#45 =  ( CONVERSION_BASED_UNIT( 'MILLIMETRE', #59 )LENGTH_UNIT(  )NAMED_UNIT( #62 ) );
#46 =  ( NAMED_UNIT( #64 )PLANE_ANGLE_UNIT(  )SI_UNIT( $, .RADIAN. ) );
#47 =  ( NAMED_UNIT( #64 )SI_UNIT( $, .STERADIAN. )SOLID_ANGLE_UNIT(  ) );
#49 = COORDINATED_UNIVERSAL_TIME_OFFSET( 1, 0, .AHEAD. );
#50 = PERSON( '', 'UNSPECIFIED', $, $, $, $ );
#51 = ORGANIZATION( 'UNSPECIFIED', 'UNSPECIFIED', 'UNSPECIFIED' );
#52 = APPROVAL_STATUS( 'approved' );
#53 = SECURITY_CLASSIFICATION_LEVEL( 'unclassified' );
#54 = MECHANICAL_CONTEXT( '', #27, 'mechanical' );
#55 = MANIFOLD_SOLID_BREP( '1', #70 );
#56 = AXIS2_PLACEMENT_3D( '', #71, #72, #73 );
#59 = LENGTH_MEASURE_WITH_UNIT( LENGTH_MEASURE( 1.00000000000000 ), #74 );
#62 = DIMENSIONAL_EXPONENTS( 1.00000000000000, 0.000000000000000, 0.000000000000000, 0.000000000000000, 0.000000000000000, 0.000000000000000, 0.000000000000000 );
#64 = DIMENSIONAL_EXPONENTS( 0.000000000000000, 0.000000000000000, 0.000000000000000, 0.000000000000000, 0.000000000000000, 0.000000000000000, 0.000000000000000 );
#70 = CLOSED_SHELL( '', ( #75, #76, #77, #78, #79, #80, #81, #82, #83, #84, #85 ) );
#71 = CARTESIAN_POINT( '', ( 0.000000000000000, 0.000000000000000, 0.000000000000000 ) );
#72 = DIRECTION( '', ( 0.000000000000000, 0.000000000000000, 1.00000000000000 ) );
#73 = DIRECTION( '', ( 1.00000000000000, 0.000000000000000, 0.000000000000000 ) );
#74 =  ( LENGTH_UNIT(  )NAMED_UNIT( #62 )SI_UNIT( .MILLI., .METRE. ) );
#75 = ADVANCED_FACE( '', ( #87 ), #88, .F. );
#76 = ADVANCED_FACE( '', ( #89 ), #90, .F. );
#77 = ADVANCED_FACE( '', ( #91, #92, #93 ), #94, .T. );
#78 = ADVANCED_FACE( '', ( #95 ), #96, .F. );
#79 = ADVANCED_FACE( '', ( #97 ), #98, .F. );
#80 = ADVANCED_FACE( '', ( #99, #100, #101 ), #102, .F. );
#81 = ADVANCED_FACE( '', ( #103 ), #104, .F. );
#82 = ADVANCED_FACE( '', ( #105, #106 ), #107, .F. );
#83 = ADVANCED_FACE( '', ( #108, #109 ), #110, .F. );
#84 = ADVANCED_FACE( '', ( #111, #112 ), #113, .F. );
#85 = ADVANCED_FACE( '', ( #114, #115 ), #116, .F. );
#87 = FACE_OUTER_BOUND( '', #117, .T. );
#88 = PLANE( '', #118 );
#89 = FACE_OUTER_BOUND( '', #119, .T. );
#90 = PLANE( '', #120 );
#91 = FACE_BOUND( '', #121, .T. );
#92 = FACE_BOUND( '', #122, .T. );
#93 = FACE_OUTER_BOUND( '', #123, .T. );
#94 = PLANE( '', #124 );
#95 = FACE_OUTER_BOUND( '', #125, .T. );
#96 = PLANE( '', #126 );
#97 = FACE_OUTER_BOUND( '', #127, .T. );
#98 = PLANE( '', #128 );
#99 = FACE_BOUND( '', #129, .T. );
#100 = FACE_BOUND( '', #130, .T. );
#101 = FACE_OUTER_BOUND( '', #131, .T. );
#102 = PLANE( '', #132 );
#103 = FACE_OUTER_BOUND( '', #133, .T. );
#104 = PLANE( '', #134 );
#105 = FACE_OUTER_BOUND( '', #135, .T. );
#106 = FACE_OUTER_BOUND( '', #136, .T. );
#107 = CYLINDRICAL_SURFACE( '', #137, 2.25000000000000 );
#108 = FACE_OUTER_BOUND( '', #138, .T. );
#109 = FACE_OUTER_BOUND( '', #139, .T. );
#110 = CYLINDRICAL_SURFACE( '', #140, 2.25000000000000 );
#111 = FACE_OUTER_BOUND( '', #141, .T. );
#112 = FACE_BOUND( '', #142, .T. );
#113 = CONICAL_SURFACE( '', #143, 1.00000000000000, 0.785398163397448 );
#114 = FACE_OUTER_BOUND( '', #144, .T. );
#115 = FACE_BOUND( '', #145, .T. );
#116 = CONICAL_SURFACE( '', #146, 1.00000000000000, 0.785398163397448 );
#117 = EDGE_LOOP( '', ( #147, #148, #149, #150 ) );
#118 = AXIS2_PLACEMENT_3D( '', #151, #152, #153 );
#119 = EDGE_LOOP( '', ( #154, #155, #156, #157 ) );
#120 = AXIS2_PLACEMENT_3D( '', #158, #159, #160 );
#121 = EDGE_LOOP( '', ( #161 ) );
#122 = EDGE_LOOP( '', ( #162 ) );
#123 = EDGE_LOOP( '', ( #163, #164, #165, #166, #167 ) );
#124 = AXIS2_PLACEMENT_3D( '', #168, #169, #170 );
#125 = EDGE_LOOP( '', ( #171, #172, #173, #174 ) );
#126 = AXIS2_PLACEMENT_3D( '', #175, #176, #177 );
#127 = EDGE_LOOP( '', ( #178, #179, #180, #181 ) );
#128 = AXIS2_PLACEMENT_3D( '', #182, #183, #184 );
#129 = EDGE_LOOP( '', ( #185 ) );
#130 = EDGE_LOOP( '', ( #186 ) );
#131 = EDGE_LOOP( '', ( #187, #188, #189, #190, #191 ) );
#132 = AXIS2_PLACEMENT_3D( '', #192, #193, #194 );
#133 = EDGE_LOOP( '', ( #195, #196, #197, #198 ) );
#134 = AXIS2_PLACEMENT_3D( '', #199, #200, #201 );
#135 = EDGE_LOOP( '', ( #202 ) );
#136 = EDGE_LOOP( '', ( #203 ) );
#137 = AXIS2_PLACEMENT_3D( '', #204, #205, #206 );
#138 = EDGE_LOOP( '', ( #207 ) );
#139 = EDGE_LOOP( '', ( #208 ) );
#140 = AXIS2_PLACEMENT_3D( '', #209, #210, #211 );
#141 = EDGE_LOOP( '', ( #212 ) );
#142 = EDGE_LOOP( '', ( #213 ) );
#143 = AXIS2_PLACEMENT_3D( '', #214, #215, #216 );
#144 = EDGE_LOOP( '', ( #217 ) );
#145 = EDGE_LOOP( '', ( #218 ) );
#146 = AXIS2_PLACEMENT_3D( '', #219, #220, #221 );
#147 = ORIENTED_EDGE( '', *, *, #222, .F. );
#148 = ORIENTED_EDGE( '', *, *, #223, .T. );
#149 = ORIENTED_EDGE( '', *, *, #224, .T. );
#150 = ORIENTED_EDGE( '', *, *, #225, .F. );
#151 = CARTESIAN_POINT( '', ( 5.00000000000000, -15.0000000000000, -3.00000000000000 ) );
#152 = DIRECTION( '', ( -0.000000000000000, 1.00000000000000, 0.000000000000000 ) );
#153 = DIRECTION( '', ( 1.00000000000000, 0.000000000000000, 0.000000000000000 ) );
#154 = ORIENTED_EDGE( '', *, *, #226, .F. );
#155 = ORIENTED_EDGE( '', *, *, #227, .F. );
#156 = ORIENTED_EDGE( '', *, *, #228, .F. );
#157 = ORIENTED_EDGE( '', *, *, #223, .F. );
#158 = CARTESIAN_POINT( '', ( 4.33680868994202E-015, -15.0000000000000, -3.00000000000000 ) );
#159 = DIRECTION( '', ( -0.707106781186548, 0.707106781186547, 0.000000000000000 ) );
#160 = DIRECTION( '', ( -0.707106781186547, -0.707106781186548, 0.000000000000000 ) );
#161 = ORIENTED_EDGE( '', *, *, #229, .F. );
#162 = ORIENTED_EDGE( '', *, *, #230, .F. );
#163 = ORIENTED_EDGE( '', *, *, #231, .T. );
#164 = ORIENTED_EDGE( '', *, *, #226, .T. );
#165 = ORIENTED_EDGE( '', *, *, #222, .T. );
#166 = ORIENTED_EDGE( '', *, *, #232, .T. );
#167 = ORIENTED_EDGE( '', *, *, #233, .T. );
#168 = CARTESIAN_POINT( '', ( -45.0000000000000, -15.0000000000000, -3.00000000000000 ) );
#169 = DIRECTION( '', ( 0.000000000000000, 0.000000000000000, -1.00000000000000 ) );
#170 = DIRECTION( '', ( -1.00000000000000, 0.000000000000000, 0.000000000000000 ) );
#171 = ORIENTED_EDGE( '', *, *, #234, .T. );
#172 = ORIENTED_EDGE( '', *, *, #235, .F. );
#173 = ORIENTED_EDGE( '', *, *, #232, .F. );
#174 = ORIENTED_EDGE( '', *, *, #225, .T. );
#175 = CARTESIAN_POINT( '', ( -45.0000000000000, -15.0000000000000, -3.00000000000000 ) );
#176 = DIRECTION( '', ( 1.00000000000000, 0.000000000000000, 0.000000000000000 ) );
#177 = DIRECTION( '', ( 0.000000000000000, -1.00000000000000, -0.000000000000000 ) );
#178 = ORIENTED_EDGE( '', *, *, #236, .T. );
#179 = ORIENTED_EDGE( '', *, *, #227, .T. );
#180 = ORIENTED_EDGE( '', *, *, #231, .F. );
#181 = ORIENTED_EDGE( '', *, *, #237, .T. );
#182 = CARTESIAN_POINT( '', ( 5.00000000000000, 10.0000000000000, -3.00000000000000 ) );
#183 = DIRECTION( '', ( -1.00000000000000, 0.000000000000000, 0.000000000000000 ) );
#184 = DIRECTION( '', ( 0.000000000000000, 1.00000000000000, 0.000000000000000 ) );
#185 = ORIENTED_EDGE( '', *, *, #238, .T. );
#186 = ORIENTED_EDGE( '', *, *, #239, .T. );
#187 = ORIENTED_EDGE( '', *, *, #224, .F. );
#188 = ORIENTED_EDGE( '', *, *, #228, .T. );
#189 = ORIENTED_EDGE( '', *, *, #236, .F. );
#190 = ORIENTED_EDGE( '', *, *, #240, .F. );
#191 = ORIENTED_EDGE( '', *, *, #234, .F. );
#192 = CARTESIAN_POINT( '', ( -45.0000000000000, -15.0000000000000, 0.000000000000000 ) );
#193 = DIRECTION( '', ( 0.000000000000000, 0.000000000000000, -1.00000000000000 ) );
#194 = DIRECTION( '', ( -1.00000000000000, 0.000000000000000, 0.000000000000000 ) );
#195 = ORIENTED_EDGE( '', *, *, #240, .T. );
#196 = ORIENTED_EDGE( '', *, *, #237, .F. );
#197 = ORIENTED_EDGE( '', *, *, #233, .F. );
#198 = ORIENTED_EDGE( '', *, *, #235, .T. );
#199 = CARTESIAN_POINT( '', ( -45.0000000000000, 10.0000000000000, -3.00000000000000 ) );
#200 = DIRECTION( '', ( 0.000000000000000, -1.00000000000000, 0.000000000000000 ) );
#201 = DIRECTION( '', ( -1.00000000000000, 0.000000000000000, 0.000000000000000 ) );
#202 = ORIENTED_EDGE( '', *, *, #241, .T. );
#203 = ORIENTED_EDGE( '', *, *, #230, .T. );
#204 = CARTESIAN_POINT( '', ( -37.5000000000000, 5.00000000000000, -5.24999999992906 ) );
#205 = DIRECTION( '', ( 0.000000000000000, -0.000000000000000, -1.00000000000000 ) );
#206 = DIRECTION( '', ( 1.00000000000000, -0.000000000000000, 0.000000000000000 ) );
#207 = ORIENTED_EDGE( '', *, *, #242, .T. );
#208 = ORIENTED_EDGE( '', *, *, #229, .T. );
#209 = CARTESIAN_POINT( '', ( -37.5000000000000, -10.0000000000000, -5.24999999992906 ) );
#210 = DIRECTION( '', ( 0.000000000000000, -0.000000000000000, -1.00000000000000 ) );
#211 = DIRECTION( '', ( 1.00000000000000, -0.000000000000000, 0.000000000000000 ) );
#212 = ORIENTED_EDGE( '', *, *, #239, .F. );
#213 = ORIENTED_EDGE( '', *, *, #241, .F. );
#214 = CARTESIAN_POINT( '', ( -37.5000000000000, 5.00000000000000, -3.00000000000000 ) );
#215 = DIRECTION( '', ( -0.000000000000000, -0.000000000000000, 1.00000000000000 ) );
#216 = DIRECTION( '', ( 1.00000000000000, -0.000000000000000, 0.000000000000000 ) );
#217 = ORIENTED_EDGE( '', *, *, #238, .F. );
#218 = ORIENTED_EDGE( '', *, *, #242, .F. );
#219 = CARTESIAN_POINT( '', ( -37.5000000000000, -10.0000000000000, -3.00000000000000 ) );
#220 = DIRECTION( '', ( -0.000000000000000, -0.000000000000000, 1.00000000000000 ) );
#221 = DIRECTION( '', ( 1.00000000000000, -0.000000000000000, 0.000000000000000 ) );
#222 = EDGE_CURVE( '', #243, #244, #245, .T. );
#223 = EDGE_CURVE( '', #243, #246, #247, .T. );
#224 = EDGE_CURVE( '', #246, #248, #249, .T. );
#225 = EDGE_CURVE( '', #244, #248, #250, .T. );
#226 = EDGE_CURVE( '', #251, #243, #252, .F. );
#227 = EDGE_CURVE( '', #253, #251, #254, .T. );
#228 = EDGE_CURVE( '', #246, #253, #255, .F. );
#229 = EDGE_CURVE( '', #256, #256, #257, .T. );
#230 = EDGE_CURVE( '', #258, #258, #259, .T. );
#231 = EDGE_CURVE( '', #260, #251, #261, .T. );
#232 = EDGE_CURVE( '', #244, #262, #263, .T. );
#233 = EDGE_CURVE( '', #262, #260, #264, .T. );
#234 = EDGE_CURVE( '', #248, #265, #266, .T. );
#235 = EDGE_CURVE( '', #262, #265, #267, .T. );
#236 = EDGE_CURVE( '', #268, #253, #269, .T. );
#237 = EDGE_CURVE( '', #260, #268, #270, .T. );
#238 = EDGE_CURVE( '', #271, #271, #272, .T. );
#239 = EDGE_CURVE( '', #273, #273, #274, .T. );
#240 = EDGE_CURVE( '', #265, #268, #275, .T. );
#241 = EDGE_CURVE( '', #276, #276, #277, .T. );
#242 = EDGE_CURVE( '', #278, #278, #279, .T. );
#243 = VERTEX_POINT( '', #280 );
#244 = VERTEX_POINT( '', #281 );
#245 = LINE( '', #282, #283 );
#246 = VERTEX_POINT( '', #284 );
#247 = LINE( '', #285, #286 );
#248 = VERTEX_POINT( '', #287 );
#249 = LINE( '', #288, #289 );
#250 = LINE( '', #290, #291 );
#251 = VERTEX_POINT( '', #292 );
#252 = LINE( '', #293, #294 );
#253 = VERTEX_POINT( '', #295 );
#254 = LINE( '', #296, #297 );
#255 = LINE( '', #298, #299 );
#256 = VERTEX_POINT( '', #300 );
#257 = CIRCLE( '', #301, 2.25000000000000 );
#258 = VERTEX_POINT( '', #302 );
#259 = CIRCLE( '', #303, 2.25000000000000 );
#260 = VERTEX_POINT( '', #304 );
#261 = LINE( '', #305, #306 );
#262 = VERTEX_POINT( '', #307 );
#263 = LINE( '', #308, #309 );
#264 = LINE( '', #310, #311 );
#265 = VERTEX_POINT( '', #312 );
#266 = LINE( '', #313, #314 );
#267 = LINE( '', #315, #316 );
#268 = VERTEX_POINT( '', #317 );
#269 = LINE( '', #318, #319 );
#270 = LINE( '', #320, #321 );
#271 = VERTEX_POINT( '', #322 );
#272 = CIRCLE( '', #323, 4.00000000000000 );
#273 = VERTEX_POINT( '', #324 );
#274 = CIRCLE( '', #325, 4.00000000000000 );
#275 = LINE( '', #326, #327 );
#276 = VERTEX_POINT( '', #328 );
#277 = CIRCLE( '', #329, 2.25000000000000 );
#278 = VERTEX_POINT( '', #330 );
#279 = CIRCLE( '', #331, 2.25000000000000 );
#280 = CARTESIAN_POINT( '', ( 9.10729824887824E-015, -15.0000000000000, -3.00000000000000 ) );
#281 = CARTESIAN_POINT( '', ( -45.0000000000000, -15.0000000000000, -3.00000000000000 ) );
#282 = CARTESIAN_POINT( '', ( 5.00000000000000, -15.0000000000000, -3.00000000000000 ) );
#283 = VECTOR( '', #332, 1000.00000000000 );
#284 = CARTESIAN_POINT( '', ( 4.33680868994202E-015, -15.0000000000000, 0.000000000000000 ) );
#285 = CARTESIAN_POINT( '', ( 4.33680868994202E-015, -15.0000000000000, -3.00000000000000 ) );
#286 = VECTOR( '', #333, 1000.00000000000 );
#287 = CARTESIAN_POINT( '', ( -45.0000000000000, -15.0000000000000, 0.000000000000000 ) );
#288 = CARTESIAN_POINT( '', ( 5.00000000000000, -15.0000000000000, 0.000000000000000 ) );
#289 = VECTOR( '', #334, 1000.00000000000 );
#290 = CARTESIAN_POINT( '', ( -45.0000000000000, -15.0000000000000, -3.00000000000000 ) );
#291 = VECTOR( '', #335, 1000.00000000000 );
#292 = CARTESIAN_POINT( '', ( 5.00000000000000, -10.0000000000000, -3.00000000000000 ) );
#293 = CARTESIAN_POINT( '', ( -22.5000000000000, -37.5000000000000, -3.00000000000000 ) );
#294 = VECTOR( '', #336, 1000.00000000000 );
#295 = CARTESIAN_POINT( '', ( 5.00000000000000, -10.0000000000000, 0.000000000000000 ) );
#296 = CARTESIAN_POINT( '', ( 5.00000000000000, -10.0000000000000, -3.00000000000000 ) );
#297 = VECTOR( '', #337, 1000.00000000000 );
#298 = CARTESIAN_POINT( '', ( 4.33680868994202E-015, -15.0000000000000, 0.000000000000000 ) );
#299 = VECTOR( '', #338, 1000.00000000000 );
#300 = CARTESIAN_POINT( '', ( -39.7500000000000, -10.0000000000000, -3.00000000000000 ) );
#301 = AXIS2_PLACEMENT_3D( '', #339, #340, #341 );
#302 = CARTESIAN_POINT( '', ( -39.7500000000000, 5.00000000000000, -3.00000000000000 ) );
#303 = AXIS2_PLACEMENT_3D( '', #342, #343, #344 );
#304 = CARTESIAN_POINT( '', ( 5.00000000000000, 10.0000000000000, -3.00000000000000 ) );
#305 = CARTESIAN_POINT( '', ( 5.00000000000000, 10.0000000000000, -3.00000000000000 ) );
#306 = VECTOR( '', #345, 1000.00000000000 );
#307 = CARTESIAN_POINT( '', ( -45.0000000000000, 10.0000000000000, -3.00000000000000 ) );
#308 = CARTESIAN_POINT( '', ( -45.0000000000000, -15.0000000000000, -3.00000000000000 ) );
#309 = VECTOR( '', #346, 1000.00000000000 );
#310 = CARTESIAN_POINT( '', ( -45.0000000000000, 10.0000000000000, -3.00000000000000 ) );
#311 = VECTOR( '', #347, 1000.00000000000 );
#312 = CARTESIAN_POINT( '', ( -45.0000000000000, 10.0000000000000, 0.000000000000000 ) );
#313 = CARTESIAN_POINT( '', ( -45.0000000000000, -15.0000000000000, 0.000000000000000 ) );
#314 = VECTOR( '', #348, 1000.00000000000 );
#315 = CARTESIAN_POINT( '', ( -45.0000000000000, 10.0000000000000, -3.00000000000000 ) );
#316 = VECTOR( '', #349, 1000.00000000000 );
#317 = CARTESIAN_POINT( '', ( 5.00000000000000, 10.0000000000000, 0.000000000000000 ) );
#318 = CARTESIAN_POINT( '', ( 5.00000000000000, 10.0000000000000, 0.000000000000000 ) );
#319 = VECTOR( '', #350, 1000.00000000000 );
#320 = CARTESIAN_POINT( '', ( 5.00000000000000, 10.0000000000000, -3.00000000000000 ) );
#321 = VECTOR( '', #351, 1000.00000000000 );
#322 = CARTESIAN_POINT( '', ( -33.5000000000000, -10.0000000000000, 0.000000000000000 ) );
#323 = AXIS2_PLACEMENT_3D( '', #352, #353, #354 );
#324 = CARTESIAN_POINT( '', ( -33.5000000000000, 5.00000000000000, 0.000000000000000 ) );
#325 = AXIS2_PLACEMENT_3D( '', #355, #356, #357 );
#326 = CARTESIAN_POINT( '', ( -45.0000000000000, 10.0000000000000, 0.000000000000000 ) );
#327 = VECTOR( '', #358, 1000.00000000000 );
#328 = CARTESIAN_POINT( '', ( -35.2500000000000, 5.00000000000000, -1.75000000000000 ) );
#329 = AXIS2_PLACEMENT_3D( '', #359, #360, #361 );
#330 = CARTESIAN_POINT( '', ( -35.2500000000000, -10.0000000000000, -1.75000000000000 ) );
#331 = AXIS2_PLACEMENT_3D( '', #362, #363, #364 );
#332 = DIRECTION( '', ( -1.00000000000000, 0.000000000000000, 0.000000000000000 ) );
#333 = DIRECTION( '', ( 0.000000000000000, 0.000000000000000, 1.00000000000000 ) );
#334 = DIRECTION( '', ( -1.00000000000000, 0.000000000000000, 0.000000000000000 ) );
#335 = DIRECTION( '', ( 0.000000000000000, -0.000000000000000, 1.00000000000000 ) );
#336 = DIRECTION( '', ( 0.707106781186547, 0.707106781186548, 0.000000000000000 ) );
#337 = DIRECTION( '', ( 0.000000000000000, 0.000000000000000, -1.00000000000000 ) );
#338 = DIRECTION( '', ( -0.707106781186547, -0.707106781186548, 0.000000000000000 ) );
#339 = CARTESIAN_POINT( '', ( -37.5000000000000, -10.0000000000000, -3.00000000000000 ) );
#340 = DIRECTION( '', ( 0.000000000000000, 0.000000000000000, -1.00000000000000 ) );
#341 = DIRECTION( '', ( -1.00000000000000, 0.000000000000000, 0.000000000000000 ) );
#342 = CARTESIAN_POINT( '', ( -37.5000000000000, 5.00000000000000, -3.00000000000000 ) );
#343 = DIRECTION( '', ( 0.000000000000000, 0.000000000000000, -1.00000000000000 ) );
#344 = DIRECTION( '', ( -1.00000000000000, 0.000000000000000, 0.000000000000000 ) );
#345 = DIRECTION( '', ( 0.000000000000000, -1.00000000000000, 0.000000000000000 ) );
#346 = DIRECTION( '', ( 0.000000000000000, 1.00000000000000, 0.000000000000000 ) );
#347 = DIRECTION( '', ( 1.00000000000000, 0.000000000000000, 0.000000000000000 ) );
#348 = DIRECTION( '', ( 0.000000000000000, 1.00000000000000, 0.000000000000000 ) );
#349 = DIRECTION( '', ( 0.000000000000000, -0.000000000000000, 1.00000000000000 ) );
#350 = DIRECTION( '', ( 0.000000000000000, -1.00000000000000, 0.000000000000000 ) );
#351 = DIRECTION( '', ( 0.000000000000000, -0.000000000000000, 1.00000000000000 ) );
#352 = CARTESIAN_POINT( '', ( -37.5000000000000, -10.0000000000000, 0.000000000000000 ) );
#353 = DIRECTION( '', ( 0.000000000000000, 0.000000000000000, -1.00000000000000 ) );
#354 = DIRECTION( '', ( 1.00000000000000, 0.000000000000000, 0.000000000000000 ) );
#355 = CARTESIAN_POINT( '', ( -37.5000000000000, 5.00000000000000, 0.000000000000000 ) );
#356 = DIRECTION( '', ( 0.000000000000000, 0.000000000000000, -1.00000000000000 ) );
#357 = DIRECTION( '', ( 1.00000000000000, 0.000000000000000, 0.000000000000000 ) );
#358 = DIRECTION( '', ( 1.00000000000000, 0.000000000000000, 0.000000000000000 ) );
#359 = CARTESIAN_POINT( '', ( -37.5000000000000, 5.00000000000000, -1.75000000000000 ) );
#360 = DIRECTION( '', ( -0.000000000000000, 0.000000000000000, 1.00000000000000 ) );
#361 = DIRECTION( '', ( 1.00000000000000, 0.000000000000000, 0.000000000000000 ) );
#362 = CARTESIAN_POINT( '', ( -37.5000000000000, -10.0000000000000, -1.75000000000000 ) );
#363 = DIRECTION( '', ( -0.000000000000000, 0.000000000000000, 1.00000000000000 ) );
#364 = DIRECTION( '', ( 1.00000000000000, 0.000000000000000, 0.000000000000000 ) );
ENDSEC;
END-ISO-10303-21;
