ISO-10303-21;
HEADER;
/* Generated by software containing ST-Developer
 * from STEP Tools, Inc. (www.steptools.com) 
 */

FILE_DESCRIPTION(
/* description */ (''),
/* implementation_level */ '2;1');

FILE_NAME(
/* name */ 
'C:\\VAULT_LOCAL\\WORKSPACE\\05_GSE\\MGSE\\GSE-052-MGSE-Torsional Thru
st Balance V2\\Calibration null balance subsystem\\Coils coupling rod 
wiring.stp',
/* time_stamp */ '2022-11-08T09:05:16+01:00',
/* author */ ('exolab-5mv6l'),
/* organization */ (''),
/* preprocessor_version */ 'ST-DEVELOPER v18.1',
/* originating_system */ 'Autodesk Inventor 2022',
/* authorisation */ '');

FILE_SCHEMA (('AUTOMOTIVE_DESIGN { 1 0 10303 214 3 1 1 }'));
ENDSEC;

DATA;
#10=MECHANICAL_DESIGN_GEOMETRIC_PRESENTATION_REPRESENTATION('',(#13),#396);
#11=SHAPE_REPRESENTATION_RELATIONSHIP('SRR','None',#403,#12);
#12=ADVANCED_BREP_SHAPE_REPRESENTATION('',(#14),#395);
#13=STYLED_ITEM('',(#412),#14);
#14=MANIFOLD_SOLID_BREP('Solide1',#215);
#15=FACE_BOUND('',#58,.T.);
#16=FACE_BOUND('',#59,.T.);
#17=FACE_BOUND('',#60,.T.);
#18=FACE_BOUND('',#61,.T.);
#19=FACE_BOUND('',#62,.T.);
#20=FACE_BOUND('',#64,.T.);
#21=FACE_BOUND('',#65,.T.);
#22=FACE_BOUND('',#66,.T.);
#23=FACE_BOUND('',#67,.T.);
#24=PLANE('',#261);
#25=PLANE('',#265);
#26=PLANE('',#266);
#27=CYLINDRICAL_SURFACE('',#241,1.6);
#28=CYLINDRICAL_SURFACE('',#246,1.6);
#29=CYLINDRICAL_SURFACE('',#251,1.6);
#30=CYLINDRICAL_SURFACE('',#256,1.6);
#31=CYLINDRICAL_SURFACE('',#258,2.5);
#32=CYLINDRICAL_SURFACE('',#262,15.5);
#33=FACE_OUTER_BOUND('',#46,.T.);
#34=FACE_OUTER_BOUND('',#47,.T.);
#35=FACE_OUTER_BOUND('',#48,.T.);
#36=FACE_OUTER_BOUND('',#49,.T.);
#37=FACE_OUTER_BOUND('',#50,.T.);
#38=FACE_OUTER_BOUND('',#51,.T.);
#39=FACE_OUTER_BOUND('',#52,.T.);
#40=FACE_OUTER_BOUND('',#53,.T.);
#41=FACE_OUTER_BOUND('',#54,.T.);
#42=FACE_OUTER_BOUND('',#55,.T.);
#43=FACE_OUTER_BOUND('',#56,.T.);
#44=FACE_OUTER_BOUND('',#57,.T.);
#45=FACE_OUTER_BOUND('',#63,.T.);
#46=EDGE_LOOP('',(#146,#147,#148,#149));
#47=EDGE_LOOP('',(#150,#151,#152,#153));
#48=EDGE_LOOP('',(#154,#155,#156,#157));
#49=EDGE_LOOP('',(#158,#159,#160,#161));
#50=EDGE_LOOP('',(#162,#163,#164,#165));
#51=EDGE_LOOP('',(#166,#167,#168,#169));
#52=EDGE_LOOP('',(#170,#171,#172,#173));
#53=EDGE_LOOP('',(#174,#175,#176,#177));
#54=EDGE_LOOP('',(#178,#179,#180,#181));
#55=EDGE_LOOP('',(#182));
#56=EDGE_LOOP('',(#183,#184,#185,#186));
#57=EDGE_LOOP('',(#187));
#58=EDGE_LOOP('',(#188));
#59=EDGE_LOOP('',(#189));
#60=EDGE_LOOP('',(#190));
#61=EDGE_LOOP('',(#191));
#62=EDGE_LOOP('',(#192));
#63=EDGE_LOOP('',(#193));
#64=EDGE_LOOP('',(#194));
#65=EDGE_LOOP('',(#195));
#66=EDGE_LOOP('',(#196));
#67=EDGE_LOOP('',(#197));
#68=LINE('',#342,#78);
#69=LINE('',#346,#79);
#70=LINE('',#352,#80);
#71=LINE('',#356,#81);
#72=LINE('',#362,#82);
#73=LINE('',#366,#83);
#74=LINE('',#372,#84);
#75=LINE('',#376,#85);
#76=LINE('',#382,#86);
#77=LINE('',#389,#87);
#78=VECTOR('',#273,2.375);
#79=VECTOR('',#278,1.6);
#80=VECTOR('',#285,2.375);
#81=VECTOR('',#290,1.6);
#82=VECTOR('',#297,2.375);
#83=VECTOR('',#302,1.6);
#84=VECTOR('',#309,2.375);
#85=VECTOR('',#314,1.6);
#86=VECTOR('',#321,2.5);
#87=VECTOR('',#330,15.5);
#88=CIRCLE('',#239,3.15);
#89=CIRCLE('',#240,1.6);
#90=CIRCLE('',#242,1.6);
#91=CIRCLE('',#244,3.15);
#92=CIRCLE('',#245,1.6);
#93=CIRCLE('',#247,1.6);
#94=CIRCLE('',#249,3.15);
#95=CIRCLE('',#250,1.6);
#96=CIRCLE('',#252,1.6);
#97=CIRCLE('',#254,3.15);
#98=CIRCLE('',#255,1.6);
#99=CIRCLE('',#257,1.6);
#100=CIRCLE('',#259,2.5);
#101=CIRCLE('',#260,2.5);
#102=CIRCLE('',#263,15.5);
#103=CIRCLE('',#264,15.5);
#104=VERTEX_POINT('',#339);
#105=VERTEX_POINT('',#341);
#106=VERTEX_POINT('',#345);
#107=VERTEX_POINT('',#349);
#108=VERTEX_POINT('',#351);
#109=VERTEX_POINT('',#355);
#110=VERTEX_POINT('',#359);
#111=VERTEX_POINT('',#361);
#112=VERTEX_POINT('',#365);
#113=VERTEX_POINT('',#369);
#114=VERTEX_POINT('',#371);
#115=VERTEX_POINT('',#375);
#116=VERTEX_POINT('',#379);
#117=VERTEX_POINT('',#381);
#118=VERTEX_POINT('',#386);
#119=VERTEX_POINT('',#388);
#120=EDGE_CURVE('',#104,#104,#88,.T.);
#121=EDGE_CURVE('',#104,#105,#68,.T.);
#122=EDGE_CURVE('',#105,#105,#89,.T.);
#123=EDGE_CURVE('',#105,#106,#69,.T.);
#124=EDGE_CURVE('',#106,#106,#90,.T.);
#125=EDGE_CURVE('',#107,#107,#91,.T.);
#126=EDGE_CURVE('',#107,#108,#70,.T.);
#127=EDGE_CURVE('',#108,#108,#92,.T.);
#128=EDGE_CURVE('',#108,#109,#71,.T.);
#129=EDGE_CURVE('',#109,#109,#93,.T.);
#130=EDGE_CURVE('',#110,#110,#94,.T.);
#131=EDGE_CURVE('',#110,#111,#72,.T.);
#132=EDGE_CURVE('',#111,#111,#95,.T.);
#133=EDGE_CURVE('',#111,#112,#73,.T.);
#134=EDGE_CURVE('',#112,#112,#96,.T.);
#135=EDGE_CURVE('',#113,#113,#97,.T.);
#136=EDGE_CURVE('',#113,#114,#74,.T.);
#137=EDGE_CURVE('',#114,#114,#98,.T.);
#138=EDGE_CURVE('',#114,#115,#75,.T.);
#139=EDGE_CURVE('',#115,#115,#99,.T.);
#140=EDGE_CURVE('',#116,#116,#100,.T.);
#141=EDGE_CURVE('',#116,#117,#76,.T.);
#142=EDGE_CURVE('',#117,#117,#101,.T.);
#143=EDGE_CURVE('',#118,#118,#102,.T.);
#144=EDGE_CURVE('',#118,#119,#77,.T.);
#145=EDGE_CURVE('',#119,#119,#103,.T.);
#146=ORIENTED_EDGE('',*,*,#120,.F.);
#147=ORIENTED_EDGE('',*,*,#121,.T.);
#148=ORIENTED_EDGE('',*,*,#122,.F.);
#149=ORIENTED_EDGE('',*,*,#121,.F.);
#150=ORIENTED_EDGE('',*,*,#122,.T.);
#151=ORIENTED_EDGE('',*,*,#123,.T.);
#152=ORIENTED_EDGE('',*,*,#124,.F.);
#153=ORIENTED_EDGE('',*,*,#123,.F.);
#154=ORIENTED_EDGE('',*,*,#125,.F.);
#155=ORIENTED_EDGE('',*,*,#126,.T.);
#156=ORIENTED_EDGE('',*,*,#127,.F.);
#157=ORIENTED_EDGE('',*,*,#126,.F.);
#158=ORIENTED_EDGE('',*,*,#127,.T.);
#159=ORIENTED_EDGE('',*,*,#128,.T.);
#160=ORIENTED_EDGE('',*,*,#129,.F.);
#161=ORIENTED_EDGE('',*,*,#128,.F.);
#162=ORIENTED_EDGE('',*,*,#130,.F.);
#163=ORIENTED_EDGE('',*,*,#131,.T.);
#164=ORIENTED_EDGE('',*,*,#132,.F.);
#165=ORIENTED_EDGE('',*,*,#131,.F.);
#166=ORIENTED_EDGE('',*,*,#132,.T.);
#167=ORIENTED_EDGE('',*,*,#133,.T.);
#168=ORIENTED_EDGE('',*,*,#134,.F.);
#169=ORIENTED_EDGE('',*,*,#133,.F.);
#170=ORIENTED_EDGE('',*,*,#135,.F.);
#171=ORIENTED_EDGE('',*,*,#136,.T.);
#172=ORIENTED_EDGE('',*,*,#137,.F.);
#173=ORIENTED_EDGE('',*,*,#136,.F.);
#174=ORIENTED_EDGE('',*,*,#137,.T.);
#175=ORIENTED_EDGE('',*,*,#138,.T.);
#176=ORIENTED_EDGE('',*,*,#139,.F.);
#177=ORIENTED_EDGE('',*,*,#138,.F.);
#178=ORIENTED_EDGE('',*,*,#140,.F.);
#179=ORIENTED_EDGE('',*,*,#141,.T.);
#180=ORIENTED_EDGE('',*,*,#142,.F.);
#181=ORIENTED_EDGE('',*,*,#141,.F.);
#182=ORIENTED_EDGE('',*,*,#140,.T.);
#183=ORIENTED_EDGE('',*,*,#143,.F.);
#184=ORIENTED_EDGE('',*,*,#144,.T.);
#185=ORIENTED_EDGE('',*,*,#145,.T.);
#186=ORIENTED_EDGE('',*,*,#144,.F.);
#187=ORIENTED_EDGE('',*,*,#143,.T.);
#188=ORIENTED_EDGE('',*,*,#120,.T.);
#189=ORIENTED_EDGE('',*,*,#125,.T.);
#190=ORIENTED_EDGE('',*,*,#130,.T.);
#191=ORIENTED_EDGE('',*,*,#135,.T.);
#192=ORIENTED_EDGE('',*,*,#142,.T.);
#193=ORIENTED_EDGE('',*,*,#145,.F.);
#194=ORIENTED_EDGE('',*,*,#124,.T.);
#195=ORIENTED_EDGE('',*,*,#129,.T.);
#196=ORIENTED_EDGE('',*,*,#134,.T.);
#197=ORIENTED_EDGE('',*,*,#139,.T.);
#198=CONICAL_SURFACE('',#238,2.375,0.785398163397448);
#199=CONICAL_SURFACE('',#243,2.375,0.785398163397448);
#200=CONICAL_SURFACE('',#248,2.375,0.785398163397448);
#201=CONICAL_SURFACE('',#253,2.375,0.785398163397448);
#202=ADVANCED_FACE('',(#33),#198,.F.);
#203=ADVANCED_FACE('',(#34),#27,.F.);
#204=ADVANCED_FACE('',(#35),#199,.F.);
#205=ADVANCED_FACE('',(#36),#28,.F.);
#206=ADVANCED_FACE('',(#37),#200,.F.);
#207=ADVANCED_FACE('',(#38),#29,.F.);
#208=ADVANCED_FACE('',(#39),#201,.F.);
#209=ADVANCED_FACE('',(#40),#30,.F.);
#210=ADVANCED_FACE('',(#41),#31,.T.);
#211=ADVANCED_FACE('',(#42),#24,.T.);
#212=ADVANCED_FACE('',(#43),#32,.T.);
#213=ADVANCED_FACE('',(#44,#15,#16,#17,#18,#19),#25,.T.);
#214=ADVANCED_FACE('',(#45,#20,#21,#22,#23),#26,.F.);
#215=CLOSED_SHELL('',(#202,#203,#204,#205,#206,#207,#208,#209,#210,#211,
#212,#213,#214));
#216=DERIVED_UNIT_ELEMENT(#219,1.);
#217=DERIVED_UNIT_ELEMENT(#398,-3.);
#218=DIMENSIONAL_EXPONENTS(1.,0.,0.,0.,0.,0.,0.);
#219=(
CONVERSION_BASED_UNIT('gram',#221)
MASS_UNIT()
NAMED_UNIT(#218)
);
#220=(
MASS_UNIT()
NAMED_UNIT(*)
SI_UNIT(.KILO.,.GRAM.)
);
#221=MASS_MEASURE_WITH_UNIT(MASS_MEASURE(0.001),#220);
#222=DERIVED_UNIT((#216,#217));
#223=MEASURE_REPRESENTATION_ITEM('density measure',
POSITIVE_RATIO_MEASURE(2.7),#222);
#224=PROPERTY_DEFINITION_REPRESENTATION(#229,#226);
#225=PROPERTY_DEFINITION_REPRESENTATION(#230,#227);
#226=REPRESENTATION('material name',(#228),#395);
#227=REPRESENTATION('density',(#223),#395);
#228=DESCRIPTIVE_REPRESENTATION_ITEM('Aluminum 6061-T6',
'Aluminum 6061-T6');
#229=PROPERTY_DEFINITION('material property','material name',#405);
#230=PROPERTY_DEFINITION('material property','density of part',#405);
#231=DATE_TIME_ROLE('creation_date');
#232=APPLIED_DATE_AND_TIME_ASSIGNMENT(#233,#231,(#405));
#233=DATE_AND_TIME(#234,#235);
#234=CALENDAR_DATE(2022,7,11);
#235=LOCAL_TIME(0,0,0.,#236);
#236=COORDINATED_UNIVERSAL_TIME_OFFSET(0,0,.BEHIND.);
#237=AXIS2_PLACEMENT_3D('placement',#337,#267,#268);
#238=AXIS2_PLACEMENT_3D('',#338,#269,#270);
#239=AXIS2_PLACEMENT_3D('',#340,#271,#272);
#240=AXIS2_PLACEMENT_3D('',#343,#274,#275);
#241=AXIS2_PLACEMENT_3D('',#344,#276,#277);
#242=AXIS2_PLACEMENT_3D('',#347,#279,#280);
#243=AXIS2_PLACEMENT_3D('',#348,#281,#282);
#244=AXIS2_PLACEMENT_3D('',#350,#283,#284);
#245=AXIS2_PLACEMENT_3D('',#353,#286,#287);
#246=AXIS2_PLACEMENT_3D('',#354,#288,#289);
#247=AXIS2_PLACEMENT_3D('',#357,#291,#292);
#248=AXIS2_PLACEMENT_3D('',#358,#293,#294);
#249=AXIS2_PLACEMENT_3D('',#360,#295,#296);
#250=AXIS2_PLACEMENT_3D('',#363,#298,#299);
#251=AXIS2_PLACEMENT_3D('',#364,#300,#301);
#252=AXIS2_PLACEMENT_3D('',#367,#303,#304);
#253=AXIS2_PLACEMENT_3D('',#368,#305,#306);
#254=AXIS2_PLACEMENT_3D('',#370,#307,#308);
#255=AXIS2_PLACEMENT_3D('',#373,#310,#311);
#256=AXIS2_PLACEMENT_3D('',#374,#312,#313);
#257=AXIS2_PLACEMENT_3D('',#377,#315,#316);
#258=AXIS2_PLACEMENT_3D('',#378,#317,#318);
#259=AXIS2_PLACEMENT_3D('',#380,#319,#320);
#260=AXIS2_PLACEMENT_3D('',#383,#322,#323);
#261=AXIS2_PLACEMENT_3D('',#384,#324,#325);
#262=AXIS2_PLACEMENT_3D('',#385,#326,#327);
#263=AXIS2_PLACEMENT_3D('',#387,#328,#329);
#264=AXIS2_PLACEMENT_3D('',#390,#331,#332);
#265=AXIS2_PLACEMENT_3D('',#391,#333,#334);
#266=AXIS2_PLACEMENT_3D('',#392,#335,#336);
#267=DIRECTION('axis',(0.,0.,1.));
#268=DIRECTION('refdir',(1.,0.,0.));
#269=DIRECTION('center_axis',(1.,0.,0.));
#270=DIRECTION('ref_axis',(0.,-1.,1.83697019872103E-16));
#271=DIRECTION('center_axis',(-1.,0.,0.));
#272=DIRECTION('ref_axis',(0.,-1.,1.83697019872103E-16));
#273=DIRECTION('',(-0.707106781186548,-0.707106781186548,4.32978028117746E-17));
#274=DIRECTION('center_axis',(1.,0.,0.));
#275=DIRECTION('ref_axis',(0.,-1.,1.83697019872103E-16));
#276=DIRECTION('center_axis',(1.,0.,0.));
#277=DIRECTION('ref_axis',(0.,-1.,1.83697019872103E-16));
#278=DIRECTION('',(-1.,0.,0.));
#279=DIRECTION('center_axis',(1.,0.,0.));
#280=DIRECTION('ref_axis',(0.,-1.,1.83697019872103E-16));
#281=DIRECTION('center_axis',(1.,0.,0.));
#282=DIRECTION('ref_axis',(0.,1.22464679914735E-16,1.));
#283=DIRECTION('center_axis',(-1.,0.,0.));
#284=DIRECTION('ref_axis',(0.,1.22464679914735E-16,1.));
#285=DIRECTION('',(-0.707106781186548,0.,0.707106781186548));
#286=DIRECTION('center_axis',(1.,0.,0.));
#287=DIRECTION('ref_axis',(0.,1.22464679914735E-16,1.));
#288=DIRECTION('center_axis',(1.,0.,0.));
#289=DIRECTION('ref_axis',(0.,1.22464679914735E-16,1.));
#290=DIRECTION('',(-1.,0.,0.));
#291=DIRECTION('center_axis',(1.,0.,0.));
#292=DIRECTION('ref_axis',(0.,1.22464679914735E-16,1.));
#293=DIRECTION('center_axis',(1.,0.,0.));
#294=DIRECTION('ref_axis',(0.,1.,-6.12323399573677E-17));
#295=DIRECTION('center_axis',(-1.,0.,0.));
#296=DIRECTION('ref_axis',(0.,1.,-6.12323399573677E-17));
#297=DIRECTION('',(-0.707106781186548,0.707106781186548,4.32978028117747E-17));
#298=DIRECTION('center_axis',(1.,0.,0.));
#299=DIRECTION('ref_axis',(0.,1.,-6.12323399573677E-17));
#300=DIRECTION('center_axis',(1.,0.,0.));
#301=DIRECTION('ref_axis',(0.,1.,-6.12323399573677E-17));
#302=DIRECTION('',(-1.,0.,0.));
#303=DIRECTION('center_axis',(1.,0.,0.));
#304=DIRECTION('ref_axis',(0.,1.,-6.12323399573677E-17));
#305=DIRECTION('center_axis',(1.,0.,0.));
#306=DIRECTION('ref_axis',(0.,0.,-1.));
#307=DIRECTION('center_axis',(-1.,0.,0.));
#308=DIRECTION('ref_axis',(0.,0.,-1.));
#309=DIRECTION('',(-0.707106781186548,8.65956056235493E-17,-0.707106781186548));
#310=DIRECTION('center_axis',(1.,0.,0.));
#311=DIRECTION('ref_axis',(0.,0.,-1.));
#312=DIRECTION('center_axis',(1.,0.,0.));
#313=DIRECTION('ref_axis',(0.,0.,-1.));
#314=DIRECTION('',(-1.,0.,0.));
#315=DIRECTION('center_axis',(1.,0.,0.));
#316=DIRECTION('ref_axis',(0.,0.,-1.));
#317=DIRECTION('center_axis',(1.,0.,0.));
#318=DIRECTION('ref_axis',(0.,0.,-1.));
#319=DIRECTION('center_axis',(1.,0.,0.));
#320=DIRECTION('ref_axis',(0.,0.,-1.));
#321=DIRECTION('',(-1.,0.,0.));
#322=DIRECTION('center_axis',(-1.,0.,0.));
#323=DIRECTION('ref_axis',(0.,0.,-1.));
#324=DIRECTION('center_axis',(1.,0.,0.));
#325=DIRECTION('ref_axis',(0.,0.,-1.));
#326=DIRECTION('center_axis',(1.,0.,0.));
#327=DIRECTION('ref_axis',(0.,1.,0.));
#328=DIRECTION('center_axis',(1.,0.,0.));
#329=DIRECTION('ref_axis',(0.,1.,0.));
#330=DIRECTION('',(-1.,0.,0.));
#331=DIRECTION('center_axis',(1.,0.,0.));
#332=DIRECTION('ref_axis',(0.,1.,0.));
#333=DIRECTION('center_axis',(1.,0.,0.));
#334=DIRECTION('ref_axis',(0.,0.,-1.));
#335=DIRECTION('center_axis',(1.,0.,0.));
#336=DIRECTION('ref_axis',(0.,0.,-1.));
#337=CARTESIAN_POINT('',(0.,0.,0.));
#338=CARTESIAN_POINT('Origin',(2.225,-2.02066721859313E-15,-11.));
#339=CARTESIAN_POINT('',(3.,3.15,-11.));
#340=CARTESIAN_POINT('Origin',(3.,-2.02066721859313E-15,-11.));
#341=CARTESIAN_POINT('',(1.45,1.6,-11.));
#342=CARTESIAN_POINT('',(2.225,2.375,-11.));
#343=CARTESIAN_POINT('Origin',(1.45,-2.02066721859313E-15,-11.));
#344=CARTESIAN_POINT('Origin',(-42.4532727094541,-2.02066721859313E-15,
-11.));
#345=CARTESIAN_POINT('',(0.,1.6,-11.));
#346=CARTESIAN_POINT('',(-42.4532727094541,1.6,-11.));
#347=CARTESIAN_POINT('Origin',(0.,-2.02066721859313E-15,-11.));
#348=CARTESIAN_POINT('Origin',(2.225,-11.,1.34711147906209E-15));
#349=CARTESIAN_POINT('',(3.,-11.,-3.15));
#350=CARTESIAN_POINT('Origin',(3.,-11.,1.34711147906209E-15));
#351=CARTESIAN_POINT('',(1.45,-11.,-1.6));
#352=CARTESIAN_POINT('',(2.225,-11.,-2.375));
#353=CARTESIAN_POINT('Origin',(1.45,-11.,1.34711147906209E-15));
#354=CARTESIAN_POINT('Origin',(-42.4532727094541,-11.,1.34711147906209E-15));
#355=CARTESIAN_POINT('',(0.,-11.,-1.6));
#356=CARTESIAN_POINT('',(-42.4532727094541,-11.,-1.6));
#357=CARTESIAN_POINT('Origin',(0.,-11.,1.34711147906209E-15));
#358=CARTESIAN_POINT('Origin',(2.225,6.73555739531044E-16,11.));
#359=CARTESIAN_POINT('',(3.,-3.15,11.));
#360=CARTESIAN_POINT('Origin',(3.,6.73555739531044E-16,11.));
#361=CARTESIAN_POINT('',(1.45,-1.6,11.));
#362=CARTESIAN_POINT('',(2.225,-2.375,11.));
#363=CARTESIAN_POINT('Origin',(1.45,6.73555739531044E-16,11.));
#364=CARTESIAN_POINT('Origin',(-42.4532727094541,6.73555739531044E-16,11.));
#365=CARTESIAN_POINT('',(0.,-1.6,11.));
#366=CARTESIAN_POINT('',(-42.4532727094541,-1.6,11.));
#367=CARTESIAN_POINT('Origin',(0.,6.73555739531044E-16,11.));
#368=CARTESIAN_POINT('Origin',(2.225,11.,0.));
#369=CARTESIAN_POINT('',(3.,11.,3.15));
#370=CARTESIAN_POINT('Origin',(3.,11.,0.));
#371=CARTESIAN_POINT('',(1.45,11.,1.6));
#372=CARTESIAN_POINT('',(2.225,11.,2.375));
#373=CARTESIAN_POINT('Origin',(1.45,11.,0.));
#374=CARTESIAN_POINT('Origin',(-42.4532727094541,11.,0.));
#375=CARTESIAN_POINT('',(0.,11.,1.6));
#376=CARTESIAN_POINT('',(-42.4532727094541,11.,1.6));
#377=CARTESIAN_POINT('Origin',(0.,11.,0.));
#378=CARTESIAN_POINT('Origin',(3.,0.,0.));
#379=CARTESIAN_POINT('',(12.,-3.06161699786838E-16,2.5));
#380=CARTESIAN_POINT('Origin',(12.,0.,0.));
#381=CARTESIAN_POINT('',(3.,-3.06161699786838E-16,2.5));
#382=CARTESIAN_POINT('',(3.,-3.06161699786838E-16,2.5));
#383=CARTESIAN_POINT('Origin',(3.,0.,0.));
#384=CARTESIAN_POINT('Origin',(12.,0.,0.));
#385=CARTESIAN_POINT('Origin',(0.,0.,0.));
#386=CARTESIAN_POINT('',(3.,-15.5,-1.8982025386784E-15));
#387=CARTESIAN_POINT('Origin',(3.,0.,0.));
#388=CARTESIAN_POINT('',(0.,-15.5,-1.8982025386784E-15));
#389=CARTESIAN_POINT('',(0.,-15.5,-1.8982025386784E-15));
#390=CARTESIAN_POINT('Origin',(0.,0.,0.));
#391=CARTESIAN_POINT('Origin',(3.,0.,0.));
#392=CARTESIAN_POINT('Origin',(0.,0.,0.));
#393=UNCERTAINTY_MEASURE_WITH_UNIT(LENGTH_MEASURE(0.01),#397,
'DISTANCE_ACCURACY_VALUE',
'Maximum model space distance between geometric entities at asserted c
onnectivities');
#394=UNCERTAINTY_MEASURE_WITH_UNIT(LENGTH_MEASURE(0.01),#397,
'DISTANCE_ACCURACY_VALUE',
'Maximum model space distance between geometric entities at asserted c
onnectivities');
#395=(
GEOMETRIC_REPRESENTATION_CONTEXT(3)
GLOBAL_UNCERTAINTY_ASSIGNED_CONTEXT((#393))
GLOBAL_UNIT_ASSIGNED_CONTEXT((#397,#399,#400))
REPRESENTATION_CONTEXT('','3D')
);
#396=(
GEOMETRIC_REPRESENTATION_CONTEXT(3)
GLOBAL_UNCERTAINTY_ASSIGNED_CONTEXT((#394))
GLOBAL_UNIT_ASSIGNED_CONTEXT((#397,#399,#400))
REPRESENTATION_CONTEXT('','3D')
);
#397=(
LENGTH_UNIT()
NAMED_UNIT(*)
SI_UNIT(.MILLI.,.METRE.)
);
#398=(
LENGTH_UNIT()
NAMED_UNIT(*)
SI_UNIT(.CENTI.,.METRE.)
);
#399=(
NAMED_UNIT(*)
PLANE_ANGLE_UNIT()
SI_UNIT($,.RADIAN.)
);
#400=(
NAMED_UNIT(*)
SI_UNIT($,.STERADIAN.)
SOLID_ANGLE_UNIT()
);
#401=SHAPE_DEFINITION_REPRESENTATION(#402,#403);
#402=PRODUCT_DEFINITION_SHAPE('',$,#405);
#403=SHAPE_REPRESENTATION('',(#237),#395);
#404=PRODUCT_DEFINITION_CONTEXT('part definition',#409,'design');
#405=PRODUCT_DEFINITION('CO-MEC-GSE-0063-01',
'Coils coupling rod wiring',#406,#404);
#406=PRODUCT_DEFINITION_FORMATION('',$,#411);
#407=PRODUCT_RELATED_PRODUCT_CATEGORY('Coils coupling rod wiring',
'Coils coupling rod wiring',(#411));
#408=APPLICATION_PROTOCOL_DEFINITION('international standard',
'automotive_design',2009,#409);
#409=APPLICATION_CONTEXT(
'Core Data for Automotive Mechanical Design Process');
#410=PRODUCT_CONTEXT('part definition',#409,'mechanical');
#411=PRODUCT('CO-MEC-GSE-0063-01','Coils coupling rod wiring',$,(#410));
#412=PRESENTATION_STYLE_ASSIGNMENT((#413));
#413=SURFACE_STYLE_USAGE(.BOTH.,#416);
#414=SURFACE_STYLE_RENDERING_WITH_PROPERTIES($,#420,(#415));
#415=SURFACE_STYLE_TRANSPARENT(0.);
#416=SURFACE_SIDE_STYLE('',(#417,#414));
#417=SURFACE_STYLE_FILL_AREA(#418);
#418=FILL_AREA_STYLE('',(#419));
#419=FILL_AREA_STYLE_COLOUR('',#420);
#420=COLOUR_RGB('',0.996078431372549,0.996078431372549,1.);
ENDSEC;
END-ISO-10303-21;
