ISO-10303-21;
HEADER;
/* Generated by software containing ST-Developer
 * from STEP Tools, Inc. (www.steptools.com) 
 */

FILE_DESCRIPTION(
/* description */ (''),
/* implementation_level */ '2;1');

FILE_NAME(
/* name */ 'Cotpetit.step',
/* time_stamp */ '2022-11-07T18:21:07+01:00',
/* author */ (''),
/* organization */ (''),
/* preprocessor_version */ 'ST-DEVELOPER v19.2',
/* originating_system */ 'Autodesk Translation Framework v11.17.0.187',

/* authorisation */ '');

FILE_SCHEMA (('AUTOMOTIVE_DESIGN { 1 0 10303 214 3 1 1 }'));
ENDSEC;

DATA;
#10=MECHANICAL_DESIGN_GEOMETRIC_PRESENTATION_REPRESENTATION('',(#13),#503);
#11=SHAPE_REPRESENTATION_RELATIONSHIP('SRR','None',#509,#12);
#12=ADVANCED_BREP_SHAPE_REPRESENTATION('',(#14),#502);
#13=STYLED_ITEM('',(#518),#14);
#14=MANIFOLD_SOLID_BREP('Corps3',#294);
#15=CONICAL_SURFACE('',#310,3.875,0.785398163397448);
#16=CONICAL_SURFACE('',#314,3.875,0.785398163397448);
#17=CONICAL_SURFACE('',#318,3.875,0.785398163397448);
#18=FACE_BOUND('',#49,.T.);
#19=FACE_BOUND('',#50,.T.);
#20=FACE_BOUND('',#51,.T.);
#21=FACE_BOUND('',#65,.T.);
#22=FACE_BOUND('',#66,.T.);
#23=FACE_BOUND('',#67,.T.);
#24=PLANE('',#299);
#25=PLANE('',#300);
#26=PLANE('',#309);
#27=PLANE('',#322);
#28=PLANE('',#325);
#29=PLANE('',#328);
#30=FACE_OUTER_BOUND('',#46,.T.);
#31=FACE_OUTER_BOUND('',#47,.T.);
#32=FACE_OUTER_BOUND('',#48,.T.);
#33=FACE_OUTER_BOUND('',#52,.T.);
#34=FACE_OUTER_BOUND('',#53,.T.);
#35=FACE_OUTER_BOUND('',#54,.T.);
#36=FACE_OUTER_BOUND('',#55,.T.);
#37=FACE_OUTER_BOUND('',#56,.T.);
#38=FACE_OUTER_BOUND('',#57,.T.);
#39=FACE_OUTER_BOUND('',#58,.T.);
#40=FACE_OUTER_BOUND('',#59,.T.);
#41=FACE_OUTER_BOUND('',#60,.T.);
#42=FACE_OUTER_BOUND('',#61,.T.);
#43=FACE_OUTER_BOUND('',#62,.T.);
#44=FACE_OUTER_BOUND('',#63,.T.);
#45=FACE_OUTER_BOUND('',#64,.T.);
#46=EDGE_LOOP('',(#193,#194,#195,#196));
#47=EDGE_LOOP('',(#197,#198,#199,#200));
#48=EDGE_LOOP('',(#201,#202,#203,#204,#205,#206,#207,#208));
#49=EDGE_LOOP('',(#209));
#50=EDGE_LOOP('',(#210));
#51=EDGE_LOOP('',(#211));
#52=EDGE_LOOP('',(#212,#213,#214,#215));
#53=EDGE_LOOP('',(#216,#217,#218,#219));
#54=EDGE_LOOP('',(#220,#221,#222,#223));
#55=EDGE_LOOP('',(#224,#225,#226,#227));
#56=EDGE_LOOP('',(#228,#229,#230,#231));
#57=EDGE_LOOP('',(#232,#233,#234,#235));
#58=EDGE_LOOP('',(#236,#237,#238,#239));
#59=EDGE_LOOP('',(#240,#241,#242,#243));
#60=EDGE_LOOP('',(#244,#245,#246,#247));
#61=EDGE_LOOP('',(#248,#249,#250,#251));
#62=EDGE_LOOP('',(#252,#253,#254,#255));
#63=EDGE_LOOP('',(#256,#257,#258,#259));
#64=EDGE_LOOP('',(#260,#261,#262,#263,#264,#265,#266,#267));
#65=EDGE_LOOP('',(#268));
#66=EDGE_LOOP('',(#269));
#67=EDGE_LOOP('',(#270));
#68=LINE('',#425,#90);
#69=LINE('',#428,#91);
#70=LINE('',#431,#92);
#71=LINE('',#433,#93);
#72=LINE('',#434,#94);
#73=LINE('',#437,#95);
#74=LINE('',#441,#96);
#75=LINE('',#445,#97);
#76=LINE('',#455,#98);
#77=LINE('',#458,#99);
#78=LINE('',#461,#100);
#79=LINE('',#462,#101);
#80=LINE('',#465,#102);
#81=LINE('',#469,#103);
#82=LINE('',#473,#104);
#83=LINE('',#477,#105);
#84=LINE('',#481,#106);
#85=LINE('',#485,#107);
#86=LINE('',#488,#108);
#87=LINE('',#492,#109);
#88=LINE('',#495,#110);
#89=LINE('',#496,#111);
#90=VECTOR('',#335,10.);
#91=VECTOR('',#338,10.);
#92=VECTOR('',#341,10.);
#93=VECTOR('',#342,10.);
#94=VECTOR('',#343,10.);
#95=VECTOR('',#346,10.);
#96=VECTOR('',#349,10.);
#97=VECTOR('',#352,10.);
#98=VECTOR('',#363,10.);
#99=VECTOR('',#366,10.);
#100=VECTOR('',#369,10.);
#101=VECTOR('',#370,10.);
#102=VECTOR('',#373,3.875);
#103=VECTOR('',#378,2.75);
#104=VECTOR('',#383,3.875);
#105=VECTOR('',#388,2.75);
#106=VECTOR('',#393,3.875);
#107=VECTOR('',#398,2.75);
#108=VECTOR('',#403,10.);
#109=VECTOR('',#408,10.);
#110=VECTOR('',#411,10.);
#111=VECTOR('',#412,10.);
#112=CIRCLE('',#297,1.);
#113=CIRCLE('',#298,1.);
#114=CIRCLE('',#301,1.);
#115=CIRCLE('',#302,2.99999999999999);
#116=CIRCLE('',#303,2.99999999999999);
#117=CIRCLE('',#304,5.00000000000001);
#118=CIRCLE('',#305,5.00000000000001);
#119=CIRCLE('',#306,5.00000000000001);
#120=CIRCLE('',#308,1.);
#121=CIRCLE('',#311,2.75);
#122=CIRCLE('',#313,2.75);
#123=CIRCLE('',#315,2.75);
#124=CIRCLE('',#317,2.75);
#125=CIRCLE('',#319,2.75);
#126=CIRCLE('',#321,2.75);
#127=CIRCLE('',#324,2.99999999999999);
#128=CIRCLE('',#327,2.99999999999999);
#129=VERTEX_POINT('',#421);
#130=VERTEX_POINT('',#422);
#131=VERTEX_POINT('',#424);
#132=VERTEX_POINT('',#426);
#133=VERTEX_POINT('',#430);
#134=VERTEX_POINT('',#432);
#135=VERTEX_POINT('',#436);
#136=VERTEX_POINT('',#438);
#137=VERTEX_POINT('',#440);
#138=VERTEX_POINT('',#442);
#139=VERTEX_POINT('',#444);
#140=VERTEX_POINT('',#447);
#141=VERTEX_POINT('',#449);
#142=VERTEX_POINT('',#451);
#143=VERTEX_POINT('',#454);
#144=VERTEX_POINT('',#456);
#145=VERTEX_POINT('',#460);
#146=VERTEX_POINT('',#464);
#147=VERTEX_POINT('',#468);
#148=VERTEX_POINT('',#472);
#149=VERTEX_POINT('',#476);
#150=VERTEX_POINT('',#480);
#151=VERTEX_POINT('',#484);
#152=VERTEX_POINT('',#490);
#153=VERTEX_POINT('',#494);
#154=EDGE_CURVE('',#129,#130,#112,.T.);
#155=EDGE_CURVE('',#130,#131,#68,.T.);
#156=EDGE_CURVE('',#131,#132,#113,.T.);
#157=EDGE_CURVE('',#132,#129,#69,.T.);
#158=EDGE_CURVE('',#130,#133,#70,.T.);
#159=EDGE_CURVE('',#134,#133,#71,.T.);
#160=EDGE_CURVE('',#131,#134,#72,.T.);
#161=EDGE_CURVE('',#135,#129,#73,.T.);
#162=EDGE_CURVE('',#136,#135,#114,.T.);
#163=EDGE_CURVE('',#137,#136,#74,.T.);
#164=EDGE_CURVE('',#138,#137,#115,.T.);
#165=EDGE_CURVE('',#139,#138,#75,.T.);
#166=EDGE_CURVE('',#133,#139,#116,.T.);
#167=EDGE_CURVE('',#140,#140,#117,.T.);
#168=EDGE_CURVE('',#141,#141,#118,.T.);
#169=EDGE_CURVE('',#142,#142,#119,.T.);
#170=EDGE_CURVE('',#135,#143,#76,.T.);
#171=EDGE_CURVE('',#143,#144,#120,.T.);
#172=EDGE_CURVE('',#144,#136,#77,.T.);
#173=EDGE_CURVE('',#145,#144,#78,.T.);
#174=EDGE_CURVE('',#145,#137,#79,.T.);
#175=EDGE_CURVE('',#140,#146,#80,.T.);
#176=EDGE_CURVE('',#146,#146,#121,.T.);
#177=EDGE_CURVE('',#146,#147,#81,.T.);
#178=EDGE_CURVE('',#147,#147,#122,.T.);
#179=EDGE_CURVE('',#141,#148,#82,.T.);
#180=EDGE_CURVE('',#148,#148,#123,.T.);
#181=EDGE_CURVE('',#148,#149,#83,.T.);
#182=EDGE_CURVE('',#149,#149,#124,.T.);
#183=EDGE_CURVE('',#142,#150,#84,.T.);
#184=EDGE_CURVE('',#150,#150,#125,.T.);
#185=EDGE_CURVE('',#150,#151,#85,.T.);
#186=EDGE_CURVE('',#151,#151,#126,.T.);
#187=EDGE_CURVE('',#132,#143,#86,.T.);
#188=EDGE_CURVE('',#152,#145,#127,.T.);
#189=EDGE_CURVE('',#152,#138,#87,.T.);
#190=EDGE_CURVE('',#153,#152,#88,.T.);
#191=EDGE_CURVE('',#153,#139,#89,.T.);
#192=EDGE_CURVE('',#134,#153,#128,.T.);
#193=ORIENTED_EDGE('',*,*,#154,.T.);
#194=ORIENTED_EDGE('',*,*,#155,.T.);
#195=ORIENTED_EDGE('',*,*,#156,.T.);
#196=ORIENTED_EDGE('',*,*,#157,.T.);
#197=ORIENTED_EDGE('',*,*,#155,.F.);
#198=ORIENTED_EDGE('',*,*,#158,.T.);
#199=ORIENTED_EDGE('',*,*,#159,.F.);
#200=ORIENTED_EDGE('',*,*,#160,.F.);
#201=ORIENTED_EDGE('',*,*,#154,.F.);
#202=ORIENTED_EDGE('',*,*,#161,.F.);
#203=ORIENTED_EDGE('',*,*,#162,.F.);
#204=ORIENTED_EDGE('',*,*,#163,.F.);
#205=ORIENTED_EDGE('',*,*,#164,.F.);
#206=ORIENTED_EDGE('',*,*,#165,.F.);
#207=ORIENTED_EDGE('',*,*,#166,.F.);
#208=ORIENTED_EDGE('',*,*,#158,.F.);
#209=ORIENTED_EDGE('',*,*,#167,.F.);
#210=ORIENTED_EDGE('',*,*,#168,.F.);
#211=ORIENTED_EDGE('',*,*,#169,.F.);
#212=ORIENTED_EDGE('',*,*,#162,.T.);
#213=ORIENTED_EDGE('',*,*,#170,.T.);
#214=ORIENTED_EDGE('',*,*,#171,.T.);
#215=ORIENTED_EDGE('',*,*,#172,.T.);
#216=ORIENTED_EDGE('',*,*,#172,.F.);
#217=ORIENTED_EDGE('',*,*,#173,.F.);
#218=ORIENTED_EDGE('',*,*,#174,.T.);
#219=ORIENTED_EDGE('',*,*,#163,.T.);
#220=ORIENTED_EDGE('',*,*,#167,.T.);
#221=ORIENTED_EDGE('',*,*,#175,.T.);
#222=ORIENTED_EDGE('',*,*,#176,.T.);
#223=ORIENTED_EDGE('',*,*,#175,.F.);
#224=ORIENTED_EDGE('',*,*,#176,.F.);
#225=ORIENTED_EDGE('',*,*,#177,.T.);
#226=ORIENTED_EDGE('',*,*,#178,.T.);
#227=ORIENTED_EDGE('',*,*,#177,.F.);
#228=ORIENTED_EDGE('',*,*,#168,.T.);
#229=ORIENTED_EDGE('',*,*,#179,.T.);
#230=ORIENTED_EDGE('',*,*,#180,.F.);
#231=ORIENTED_EDGE('',*,*,#179,.F.);
#232=ORIENTED_EDGE('',*,*,#180,.T.);
#233=ORIENTED_EDGE('',*,*,#181,.T.);
#234=ORIENTED_EDGE('',*,*,#182,.T.);
#235=ORIENTED_EDGE('',*,*,#181,.F.);
#236=ORIENTED_EDGE('',*,*,#169,.T.);
#237=ORIENTED_EDGE('',*,*,#183,.T.);
#238=ORIENTED_EDGE('',*,*,#184,.F.);
#239=ORIENTED_EDGE('',*,*,#183,.F.);
#240=ORIENTED_EDGE('',*,*,#184,.T.);
#241=ORIENTED_EDGE('',*,*,#185,.T.);
#242=ORIENTED_EDGE('',*,*,#186,.T.);
#243=ORIENTED_EDGE('',*,*,#185,.F.);
#244=ORIENTED_EDGE('',*,*,#157,.F.);
#245=ORIENTED_EDGE('',*,*,#187,.T.);
#246=ORIENTED_EDGE('',*,*,#170,.F.);
#247=ORIENTED_EDGE('',*,*,#161,.T.);
#248=ORIENTED_EDGE('',*,*,#188,.F.);
#249=ORIENTED_EDGE('',*,*,#189,.T.);
#250=ORIENTED_EDGE('',*,*,#164,.T.);
#251=ORIENTED_EDGE('',*,*,#174,.F.);
#252=ORIENTED_EDGE('',*,*,#190,.F.);
#253=ORIENTED_EDGE('',*,*,#191,.T.);
#254=ORIENTED_EDGE('',*,*,#165,.T.);
#255=ORIENTED_EDGE('',*,*,#189,.F.);
#256=ORIENTED_EDGE('',*,*,#192,.F.);
#257=ORIENTED_EDGE('',*,*,#159,.T.);
#258=ORIENTED_EDGE('',*,*,#166,.T.);
#259=ORIENTED_EDGE('',*,*,#191,.F.);
#260=ORIENTED_EDGE('',*,*,#156,.F.);
#261=ORIENTED_EDGE('',*,*,#160,.T.);
#262=ORIENTED_EDGE('',*,*,#192,.T.);
#263=ORIENTED_EDGE('',*,*,#190,.T.);
#264=ORIENTED_EDGE('',*,*,#188,.T.);
#265=ORIENTED_EDGE('',*,*,#173,.T.);
#266=ORIENTED_EDGE('',*,*,#171,.F.);
#267=ORIENTED_EDGE('',*,*,#187,.F.);
#268=ORIENTED_EDGE('',*,*,#178,.F.);
#269=ORIENTED_EDGE('',*,*,#182,.F.);
#270=ORIENTED_EDGE('',*,*,#186,.F.);
#271=CYLINDRICAL_SURFACE('',#296,1.);
#272=CYLINDRICAL_SURFACE('',#307,1.);
#273=CYLINDRICAL_SURFACE('',#312,2.75);
#274=CYLINDRICAL_SURFACE('',#316,2.75);
#275=CYLINDRICAL_SURFACE('',#320,2.75);
#276=CYLINDRICAL_SURFACE('',#323,2.99999999999999);
#277=CYLINDRICAL_SURFACE('',#326,2.99999999999999);
#278=ADVANCED_FACE('',(#30),#271,.T.);
#279=ADVANCED_FACE('',(#31),#24,.F.);
#280=ADVANCED_FACE('',(#32,#18,#19,#20),#25,.F.);
#281=ADVANCED_FACE('',(#33),#272,.T.);
#282=ADVANCED_FACE('',(#34),#26,.F.);
#283=ADVANCED_FACE('',(#35),#15,.F.);
#284=ADVANCED_FACE('',(#36),#273,.F.);
#285=ADVANCED_FACE('',(#37),#16,.F.);
#286=ADVANCED_FACE('',(#38),#274,.F.);
#287=ADVANCED_FACE('',(#39),#17,.F.);
#288=ADVANCED_FACE('',(#40),#275,.F.);
#289=ADVANCED_FACE('',(#41),#27,.F.);
#290=ADVANCED_FACE('',(#42),#276,.T.);
#291=ADVANCED_FACE('',(#43),#28,.F.);
#292=ADVANCED_FACE('',(#44),#277,.T.);
#293=ADVANCED_FACE('',(#45,#21,#22,#23),#29,.T.);
#294=CLOSED_SHELL('',(#278,#279,#280,#281,#282,#283,#284,#285,#286,#287,
#288,#289,#290,#291,#292,#293));
#295=AXIS2_PLACEMENT_3D('placement',#419,#329,#330);
#296=AXIS2_PLACEMENT_3D('',#420,#331,#332);
#297=AXIS2_PLACEMENT_3D('',#423,#333,#334);
#298=AXIS2_PLACEMENT_3D('',#427,#336,#337);
#299=AXIS2_PLACEMENT_3D('',#429,#339,#340);
#300=AXIS2_PLACEMENT_3D('',#435,#344,#345);
#301=AXIS2_PLACEMENT_3D('',#439,#347,#348);
#302=AXIS2_PLACEMENT_3D('',#443,#350,#351);
#303=AXIS2_PLACEMENT_3D('',#446,#353,#354);
#304=AXIS2_PLACEMENT_3D('',#448,#355,#356);
#305=AXIS2_PLACEMENT_3D('',#450,#357,#358);
#306=AXIS2_PLACEMENT_3D('',#452,#359,#360);
#307=AXIS2_PLACEMENT_3D('',#453,#361,#362);
#308=AXIS2_PLACEMENT_3D('',#457,#364,#365);
#309=AXIS2_PLACEMENT_3D('',#459,#367,#368);
#310=AXIS2_PLACEMENT_3D('',#463,#371,#372);
#311=AXIS2_PLACEMENT_3D('',#466,#374,#375);
#312=AXIS2_PLACEMENT_3D('',#467,#376,#377);
#313=AXIS2_PLACEMENT_3D('',#470,#379,#380);
#314=AXIS2_PLACEMENT_3D('',#471,#381,#382);
#315=AXIS2_PLACEMENT_3D('',#474,#384,#385);
#316=AXIS2_PLACEMENT_3D('',#475,#386,#387);
#317=AXIS2_PLACEMENT_3D('',#478,#389,#390);
#318=AXIS2_PLACEMENT_3D('',#479,#391,#392);
#319=AXIS2_PLACEMENT_3D('',#482,#394,#395);
#320=AXIS2_PLACEMENT_3D('',#483,#396,#397);
#321=AXIS2_PLACEMENT_3D('',#486,#399,#400);
#322=AXIS2_PLACEMENT_3D('',#487,#401,#402);
#323=AXIS2_PLACEMENT_3D('',#489,#404,#405);
#324=AXIS2_PLACEMENT_3D('',#491,#406,#407);
#325=AXIS2_PLACEMENT_3D('',#493,#409,#410);
#326=AXIS2_PLACEMENT_3D('',#497,#413,#414);
#327=AXIS2_PLACEMENT_3D('',#498,#415,#416);
#328=AXIS2_PLACEMENT_3D('',#499,#417,#418);
#329=DIRECTION('axis',(0.,0.,1.));
#330=DIRECTION('refdir',(1.,0.,0.));
#331=DIRECTION('center_axis',(1.,0.,0.));
#332=DIRECTION('ref_axis',(0.,0.707106781186548,0.707106781186548));
#333=DIRECTION('center_axis',(-1.,0.,0.));
#334=DIRECTION('ref_axis',(0.,0.707106781186548,0.707106781186548));
#335=DIRECTION('',(-1.,0.,0.));
#336=DIRECTION('center_axis',(1.,0.,0.));
#337=DIRECTION('ref_axis',(0.,0.707106781186548,0.707106781186548));
#338=DIRECTION('',(1.,0.,0.));
#339=DIRECTION('center_axis',(0.,-1.,0.));
#340=DIRECTION('ref_axis',(0.,0.,-1.));
#341=DIRECTION('',(0.,0.,-1.));
#342=DIRECTION('',(1.,0.,0.));
#343=DIRECTION('',(0.,0.,-1.));
#344=DIRECTION('center_axis',(-1.,0.,0.));
#345=DIRECTION('ref_axis',(0.,-1.,0.));
#346=DIRECTION('',(0.,1.,0.));
#347=DIRECTION('center_axis',(-1.,0.,0.));
#348=DIRECTION('ref_axis',(0.,-0.707106781186548,0.707106781186548));
#349=DIRECTION('',(0.,0.,1.));
#350=DIRECTION('center_axis',(-1.,0.,0.));
#351=DIRECTION('ref_axis',(0.,2.96059473233376E-15,-1.));
#352=DIRECTION('',(0.,-1.,4.34019947077856E-18));
#353=DIRECTION('center_axis',(-1.,0.,0.));
#354=DIRECTION('ref_axis',(0.,1.,1.48029736616688E-15));
#355=DIRECTION('center_axis',(1.,0.,0.));
#356=DIRECTION('ref_axis',(0.,1.,0.));
#357=DIRECTION('center_axis',(1.,0.,0.));
#358=DIRECTION('ref_axis',(0.,-1.,0.));
#359=DIRECTION('center_axis',(1.,0.,0.));
#360=DIRECTION('ref_axis',(0.,-1.,0.));
#361=DIRECTION('center_axis',(1.,0.,0.));
#362=DIRECTION('ref_axis',(0.,-0.707106781186548,0.707106781186548));
#363=DIRECTION('',(-1.,0.,0.));
#364=DIRECTION('center_axis',(1.,0.,0.));
#365=DIRECTION('ref_axis',(0.,-0.707106781186548,0.707106781186548));
#366=DIRECTION('',(1.,0.,0.));
#367=DIRECTION('center_axis',(0.,1.,0.));
#368=DIRECTION('ref_axis',(0.,0.,1.));
#369=DIRECTION('',(0.,0.,1.));
#370=DIRECTION('',(1.,0.,0.));
#371=DIRECTION('center_axis',(1.,0.,0.));
#372=DIRECTION('ref_axis',(0.,1.,0.));
#373=DIRECTION('',(-0.707106781186548,0.707106781186547,-8.65956056235493E-17));
#374=DIRECTION('center_axis',(-1.,0.,0.));
#375=DIRECTION('ref_axis',(0.,1.,0.));
#376=DIRECTION('center_axis',(-1.,0.,0.));
#377=DIRECTION('ref_axis',(0.,1.,0.));
#378=DIRECTION('',(-1.,0.,0.));
#379=DIRECTION('center_axis',(-1.,0.,0.));
#380=DIRECTION('ref_axis',(0.,1.,0.));
#381=DIRECTION('center_axis',(1.,0.,0.));
#382=DIRECTION('ref_axis',(0.,-1.,0.));
#383=DIRECTION('',(-0.707106781186548,-0.707106781186547,-8.65956056235493E-17));
#384=DIRECTION('center_axis',(1.,0.,0.));
#385=DIRECTION('ref_axis',(0.,-1.,0.));
#386=DIRECTION('center_axis',(1.,0.,0.));
#387=DIRECTION('ref_axis',(0.,-1.,0.));
#388=DIRECTION('',(-1.,0.,0.));
#389=DIRECTION('center_axis',(-1.,0.,0.));
#390=DIRECTION('ref_axis',(0.,-1.,0.));
#391=DIRECTION('center_axis',(1.,0.,0.));
#392=DIRECTION('ref_axis',(0.,-1.,0.));
#393=DIRECTION('',(-0.707106781186548,-0.707106781186547,-8.65956056235493E-17));
#394=DIRECTION('center_axis',(1.,0.,0.));
#395=DIRECTION('ref_axis',(0.,-1.,0.));
#396=DIRECTION('center_axis',(1.,0.,0.));
#397=DIRECTION('ref_axis',(0.,-1.,0.));
#398=DIRECTION('',(-1.,0.,0.));
#399=DIRECTION('center_axis',(-1.,0.,0.));
#400=DIRECTION('ref_axis',(0.,-1.,0.));
#401=DIRECTION('center_axis',(0.,0.,-1.));
#402=DIRECTION('ref_axis',(0.,1.,0.));
#403=DIRECTION('',(0.,-1.,0.));
#404=DIRECTION('center_axis',(-1.,0.,0.));
#405=DIRECTION('ref_axis',(0.,2.96059473233376E-15,-1.));
#406=DIRECTION('center_axis',(-1.,0.,0.));
#407=DIRECTION('ref_axis',(0.,2.96059473233376E-15,-1.));
#408=DIRECTION('',(1.,0.,0.));
#409=DIRECTION('center_axis',(0.,4.34019947077856E-18,1.));
#410=DIRECTION('ref_axis',(0.,-1.,4.34019947077856E-18));
#411=DIRECTION('',(0.,-1.,4.34019947077856E-18));
#412=DIRECTION('',(1.,0.,0.));
#413=DIRECTION('center_axis',(-1.,0.,0.));
#414=DIRECTION('ref_axis',(0.,1.,1.48029736616688E-15));
#415=DIRECTION('center_axis',(-1.,0.,0.));
#416=DIRECTION('ref_axis',(0.,1.,1.48029736616688E-15));
#417=DIRECTION('center_axis',(-1.,0.,0.));
#418=DIRECTION('ref_axis',(0.,-1.,0.));
#419=CARTESIAN_POINT('',(0.,0.,0.));
#420=CARTESIAN_POINT('Origin',(163.,65.95,59.));
#421=CARTESIAN_POINT('',(167.,65.95,60.));
#422=CARTESIAN_POINT('',(167.,66.95,59.));
#423=CARTESIAN_POINT('Origin',(167.,65.95,59.));
#424=CARTESIAN_POINT('',(163.,66.95,59.));
#425=CARTESIAN_POINT('',(163.,66.95,59.));
#426=CARTESIAN_POINT('',(163.,65.95,60.));
#427=CARTESIAN_POINT('Origin',(163.,65.95,59.));
#428=CARTESIAN_POINT('',(163.,65.95,60.));
#429=CARTESIAN_POINT('Origin',(163.,66.95,60.));
#430=CARTESIAN_POINT('',(167.,66.95,1.00000000000001));
#431=CARTESIAN_POINT('',(167.,66.95,60.));
#432=CARTESIAN_POINT('',(163.,66.95,1.00000000000001));
#433=CARTESIAN_POINT('',(163.,66.95,1.00000000000001));
#434=CARTESIAN_POINT('',(163.,66.95,60.));
#435=CARTESIAN_POINT('Origin',(167.,0.,29.));
#436=CARTESIAN_POINT('',(167.,-65.95,60.));
#437=CARTESIAN_POINT('',(167.,66.95,60.));
#438=CARTESIAN_POINT('',(167.,-66.95,59.));
#439=CARTESIAN_POINT('Origin',(167.,-65.95,59.));
#440=CARTESIAN_POINT('',(167.,-66.95,0.999999999999997));
#441=CARTESIAN_POINT('',(167.,-66.95,0.999999999999997));
#442=CARTESIAN_POINT('',(167.,-63.95,-2.));
#443=CARTESIAN_POINT('Origin',(167.,-63.95,0.999999999999984));
#444=CARTESIAN_POINT('',(167.,63.95,-2.));
#445=CARTESIAN_POINT('',(167.,63.95,-2.));
#446=CARTESIAN_POINT('Origin',(167.,63.95,1.));
#447=CARTESIAN_POINT('',(167.,-64.95,46.5));
#448=CARTESIAN_POINT('Origin',(167.,-59.95,46.5));
#449=CARTESIAN_POINT('',(167.,64.95,46.5));
#450=CARTESIAN_POINT('Origin',(167.,59.95,46.5));
#451=CARTESIAN_POINT('',(167.,5.,11.5));
#452=CARTESIAN_POINT('Origin',(167.,2.22044604925031E-15,11.5));
#453=CARTESIAN_POINT('Origin',(163.,-65.95,59.));
#454=CARTESIAN_POINT('',(163.,-65.95,60.));
#455=CARTESIAN_POINT('',(163.,-65.95,60.));
#456=CARTESIAN_POINT('',(163.,-66.95,59.));
#457=CARTESIAN_POINT('Origin',(163.,-65.95,59.));
#458=CARTESIAN_POINT('',(163.,-66.95,59.));
#459=CARTESIAN_POINT('Origin',(163.,-66.95,0.999999999999997));
#460=CARTESIAN_POINT('',(163.,-66.95,0.999999999999997));
#461=CARTESIAN_POINT('',(163.,-66.95,0.999999999999997));
#462=CARTESIAN_POINT('',(163.,-66.95,0.999999999999997));
#463=CARTESIAN_POINT('Origin',(165.875,-59.95,46.5));
#464=CARTESIAN_POINT('',(164.75,-62.7,46.5));
#465=CARTESIAN_POINT('',(165.875,-63.825,46.5));
#466=CARTESIAN_POINT('Origin',(164.75,-59.95,46.5));
#467=CARTESIAN_POINT('Origin',(159.,-59.95,46.5));
#468=CARTESIAN_POINT('',(163.,-62.7,46.5));
#469=CARTESIAN_POINT('',(159.,-62.7,46.5));
#470=CARTESIAN_POINT('Origin',(163.,-59.95,46.5));
#471=CARTESIAN_POINT('Origin',(165.875,59.95,46.5));
#472=CARTESIAN_POINT('',(164.75,62.7,46.5));
#473=CARTESIAN_POINT('',(165.875,63.825,46.5));
#474=CARTESIAN_POINT('Origin',(164.75,59.95,46.5));
#475=CARTESIAN_POINT('Origin',(159.,59.95,46.5));
#476=CARTESIAN_POINT('',(163.,62.7,46.5));
#477=CARTESIAN_POINT('',(159.,62.7,46.5));
#478=CARTESIAN_POINT('Origin',(163.,59.95,46.5));
#479=CARTESIAN_POINT('Origin',(165.875,2.22044604925031E-15,11.5));
#480=CARTESIAN_POINT('',(164.75,2.75,11.5));
#481=CARTESIAN_POINT('',(165.875,3.875,11.5));
#482=CARTESIAN_POINT('Origin',(164.75,2.22044604925031E-15,11.5));
#483=CARTESIAN_POINT('Origin',(159.,2.22044604925031E-15,11.5));
#484=CARTESIAN_POINT('',(163.,2.75,11.5));
#485=CARTESIAN_POINT('',(159.,2.75,11.5));
#486=CARTESIAN_POINT('Origin',(163.,2.22044604925031E-15,11.5));
#487=CARTESIAN_POINT('Origin',(163.,-66.95,60.));
#488=CARTESIAN_POINT('',(163.,66.95,60.));
#489=CARTESIAN_POINT('Origin',(163.,-63.95,0.999999999999984));
#490=CARTESIAN_POINT('',(163.,-63.95,-2.));
#491=CARTESIAN_POINT('Origin',(163.,-63.95,0.999999999999984));
#492=CARTESIAN_POINT('',(163.,-63.95,-2.));
#493=CARTESIAN_POINT('Origin',(163.,63.95,-2.));
#494=CARTESIAN_POINT('',(163.,63.95,-2.));
#495=CARTESIAN_POINT('',(163.,63.95,-2.));
#496=CARTESIAN_POINT('',(163.,63.95,-2.));
#497=CARTESIAN_POINT('Origin',(163.,63.95,1.));
#498=CARTESIAN_POINT('Origin',(163.,63.95,1.));
#499=CARTESIAN_POINT('Origin',(163.,0.,29.));
#500=UNCERTAINTY_MEASURE_WITH_UNIT(LENGTH_MEASURE(0.01),#504,
'DISTANCE_ACCURACY_VALUE',
'Maximum model space distance between geometric entities at asserted c
onnectivities');
#501=UNCERTAINTY_MEASURE_WITH_UNIT(LENGTH_MEASURE(0.01),#504,
'DISTANCE_ACCURACY_VALUE',
'Maximum model space distance between geometric entities at asserted c
onnectivities');
#502=(
GEOMETRIC_REPRESENTATION_CONTEXT(3)
GLOBAL_UNCERTAINTY_ASSIGNED_CONTEXT((#500))
GLOBAL_UNIT_ASSIGNED_CONTEXT((#504,#505,#506))
REPRESENTATION_CONTEXT('','3D')
);
#503=(
GEOMETRIC_REPRESENTATION_CONTEXT(3)
GLOBAL_UNCERTAINTY_ASSIGNED_CONTEXT((#501))
GLOBAL_UNIT_ASSIGNED_CONTEXT((#504,#505,#506))
REPRESENTATION_CONTEXT('','3D')
);
#504=(
LENGTH_UNIT()
NAMED_UNIT(*)
SI_UNIT(.MILLI.,.METRE.)
);
#505=(
NAMED_UNIT(*)
PLANE_ANGLE_UNIT()
SI_UNIT($,.RADIAN.)
);
#506=(
NAMED_UNIT(*)
SI_UNIT($,.STERADIAN.)
SOLID_ANGLE_UNIT()
);
#507=SHAPE_DEFINITION_REPRESENTATION(#508,#509);
#508=PRODUCT_DEFINITION_SHAPE('',$,#511);
#509=SHAPE_REPRESENTATION('',(#295),#502);
#510=PRODUCT_DEFINITION_CONTEXT('part definition',#515,'design');
#511=PRODUCT_DEFINITION('U','U v9',#512,#510);
#512=PRODUCT_DEFINITION_FORMATION('',$,#517);
#513=PRODUCT_RELATED_PRODUCT_CATEGORY('U v9','U v9',(#517));
#514=APPLICATION_PROTOCOL_DEFINITION('international standard',
'automotive_design',2009,#515);
#515=APPLICATION_CONTEXT(
'Core Data for Automotive Mechanical Design Process');
#516=PRODUCT_CONTEXT('part definition',#515,'mechanical');
#517=PRODUCT('U','U v9',$,(#516));
#518=PRESENTATION_STYLE_ASSIGNMENT((#519));
#519=SURFACE_STYLE_USAGE(.BOTH.,#520);
#520=SURFACE_SIDE_STYLE('',(#521));
#521=SURFACE_STYLE_FILL_AREA(#522);
#522=FILL_AREA_STYLE('Acier - Satin\X\E9',(#523));
#523=FILL_AREA_STYLE_COLOUR('Acier - Satin\X\E9',#524);
#524=COLOUR_RGB('Acier - Satin\X\E9',0.627450980392157,0.627450980392157,
0.627450980392157);
ENDSEC;
END-ISO-10303-21;
