ISO-10303-21;
HEADER;
FILE_DESCRIPTION (( 'STEP AP214' ),
    '1' );
FILE_NAME ('C1.STEP',
    '2022-11-08T16:58:09',
    ( '' ),
    ( '' ),
    'SwSTEP 2.0',
    'SolidWorks 2014',
    '' );
FILE_SCHEMA (( 'AUTOMOTIVE_DESIGN' ));
ENDSEC;

DATA;
#1 = ADVANCED_FACE ( 'NONE', ( #107, #219 ), #162, .T. ) ;
#2 = VECTOR ( 'NONE', #212, 1000.000000000000000 ) ;
#3 = CIRCLE ( 'NONE', #58, 5.598076211353327600 ) ;
#4 = ADVANCED_FACE ( 'NONE', ( #104 ), #234, .F. ) ;
#5 = ADVANCED_FACE ( 'NONE', ( #100 ), #91, .T. ) ;
#6 = UNCERTAINTY_MEASURE_WITH_UNIT (LENGTH_MEASURE( 1.000000000000000100E-005 ), #242, 'distance_accuracy_value', 'NONE');
#7 = ADVANCED_FACE ( 'NONE', ( #143 ), #102, .F. ) ;
#8 = CIRCLE ( 'NONE', #56, 5.598076211353327600 ) ;
#9 = ADVANCED_FACE ( 'NONE', ( #217 ), #135, .T. ) ;
#10 = STYLED_ITEM ( 'NONE', ( #113 ), #85 ) ;
#11 = VECTOR ( 'NONE', #218, 1000.000000000000000 ) ;
#12 = ADVANCED_FACE ( 'NONE', ( #116, #209 ), #272, .T. ) ;
#13 = DIRECTION ( 'NONE',  ( -6.658766545477926900E-031, 7.857794173099998900E-032, 1.000000000000000000 ) ) ;
#14 = DIRECTION ( 'NONE',  ( -6.658766545477926900E-031, 7.857794173099998900E-032, 1.000000000000000000 ) ) ;
#15 = UNCERTAINTY_MEASURE_WITH_UNIT (LENGTH_MEASURE( 1.000000000000000100E-005 ), #328, 'distance_accuracy_value', 'NONE');
#16 = ORIENTED_EDGE ( 'NONE', *, *, #282, .T. ) ;
#17 =( GEOMETRIC_REPRESENTATION_CONTEXT ( 3 ) GLOBAL_UNCERTAINTY_ASSIGNED_CONTEXT ( ( #163 ) ) GLOBAL_UNIT_ASSIGNED_CONTEXT ( ( #341, #339, #338 ) ) REPRESENTATION_CONTEXT ( 'NONE', 'WORKASPACE' ) );
#18 = AXIS2_PLACEMENT_3D ( 'NONE', #92, #60, #75 ) ;
#19 = FILL_AREA_STYLE_COLOUR ( '', #45 ) ;
#20 = CIRCLE ( 'NONE', #51, 7.500000000000000000 ) ;
#21 = AXIS2_PLACEMENT_3D ( 'NONE', #83, #22, #53 ) ;
#22 = DIRECTION ( 'NONE',  ( -6.658766545477926900E-031, 7.857794173099998900E-032, 1.000000000000000000 ) ) ;
#23 = ORIENTED_EDGE ( 'NONE', *, *, #276, .T. ) ;
#24 = VECTOR ( 'NONE', #223, 1000.000000000000000 ) ;
#25 = ORIENTED_EDGE ( 'NONE', *, *, #259, .F. ) ;
#26 = AXIS2_PLACEMENT_3D ( 'NONE', #103, #110, #88 ) ;
#27 = AXIS2_PLACEMENT_3D ( 'NONE', #114, #157, #119 ) ;
#28 = SURFACE_STYLE_FILL_AREA ( #333 ) ;
#29 = CIRCLE ( 'NONE', #26, 7.500000000000000000 ) ;
#30 = ADVANCED_FACE ( 'NONE', ( #84 ), #76, .T. ) ;
#31 = SHAPE_DEFINITION_REPRESENTATION ( #203, #85 ) ;
#32 = ORIENTED_EDGE ( 'NONE', *, *, #262, .T. ) ;
#33 = LINE ( 'NONE', #280, #11 ) ;
#34 = LINE ( 'NONE', #241, #2 ) ;
#35 = DIRECTION ( 'NONE',  ( 1.000000000000000000, 0.0000000000000000000, 0.0000000000000000000 ) ) ;
#36 = CARTESIAN_POINT ( 'NONE',  ( -13.50000000000000700, 0.0000000000000000000, 4.500000000000003600 ) ) ;
#37 = LINE ( 'NONE', #226, #24 ) ;
#38 = CIRCLE ( 'NONE', #78, 6.000000000000001800 ) ;
#39 = VECTOR ( 'NONE', #289, 1000.000000000000000 ) ;
#40 = CIRCLE ( 'NONE', #21, 6.000000000000001800 ) ;
#41 = FACE_OUTER_BOUND ( 'NONE', #120, .T. ) ;
#42 = ORIENTED_EDGE ( 'NONE', *, *, #232, .F. ) ;
#43 = DIRECTION ( 'NONE',  ( 1.000000000000000000, 0.0000000000000000000, 0.0000000000000000000 ) ) ;
#44 = DIRECTION ( 'NONE',  ( -6.658766545477926900E-031, 7.857794173099998900E-032, 1.000000000000000000 ) ) ;
#45 = COLOUR_RGB ( '',0.7921568627450980000, 0.8196078431372548800, 0.9333333333333333500 ) ;
#46 = CYLINDRICAL_SURFACE ( 'NONE', #71, 7.500000000000000000 ) ;
#47 = CIRCLE ( 'NONE', #72, 6.000000000000001800 ) ;
#48 = EDGE_LOOP ( 'NONE', ( #255, #228 ) ) ;
#49 = AXIS2_PLACEMENT_3D ( 'NONE', #146, #145, #132 ) ;
#50 = CYLINDRICAL_SURFACE ( 'NONE', #165, 6.000000000000001800 ) ;
#51 = AXIS2_PLACEMENT_3D ( 'NONE', #207, #202, #196 ) ;
#52 = AXIS2_PLACEMENT_3D ( 'NONE', #63, #57, #35 ) ;
#53 = DIRECTION ( 'NONE',  ( 1.000000000000000000, 0.0000000000000000000, 0.0000000000000000000 ) ) ;
#54 = ORIENTED_EDGE ( 'NONE', *, *, #230, .F. ) ;
#55 = AXIS2_PLACEMENT_3D ( 'NONE', #152, #151, #150 ) ;
#56 = AXIS2_PLACEMENT_3D ( 'NONE', #167, #160, #158 ) ;
#57 = DIRECTION ( 'NONE',  ( -6.658766545477926900E-031, 7.857794173099998900E-032, 1.000000000000000000 ) ) ;
#58 = AXIS2_PLACEMENT_3D ( 'NONE', #188, #161, #184 ) ;
#59 = CARTESIAN_POINT ( 'NONE',  ( -13.50000000000000700, 0.0000000000000000000, 4.500000000000003600 ) ) ;
#60 = DIRECTION ( 'NONE',  ( -6.658766545477926900E-031, 7.857794173099998900E-032, 1.000000000000000000 ) ) ;
#61 = CIRCLE ( 'NONE', #70, 4.000000000000001800 ) ;
#62 = CARTESIAN_POINT ( 'NONE',  ( -13.50000000000000700, 0.0000000000000000000, 4.500000000000003600 ) ) ;
#63 = CARTESIAN_POINT ( 'NONE',  ( -13.50000000000000700, 0.0000000000000000000, -1.000000000000000900 ) ) ;
#64 = PRESENTATION_STYLE_ASSIGNMENT (( #201 ) ) ;
#65 = CIRCLE ( 'NONE', #69, 7.500000000000000000 ) ;
#66 = DIRECTION ( 'NONE',  ( 1.000000000000000000, 0.0000000000000000000, 0.0000000000000000000 ) ) ;
#67 = PRODUCT ( 'C1', 'C1', '', ( #322 ) ) ;
#68 = LINE ( 'NONE', #288, #39 ) ;
#69 = AXIS2_PLACEMENT_3D ( 'NONE', #233, #231, #229 ) ;
#70 = AXIS2_PLACEMENT_3D ( 'NONE', #344, #343, #342 ) ;
#71 = AXIS2_PLACEMENT_3D ( 'NONE', #301, #307, #299 ) ;
#72 = AXIS2_PLACEMENT_3D ( 'NONE', #274, #273, #265 ) ;
#73 = SURFACE_STYLE_FILL_AREA ( #210 ) ;
#74 = CARTESIAN_POINT ( 'NONE',  ( -17.50000000000000700, 4.898587196589363500E-016, -1.000000000000000900 ) ) ;
#75 = DIRECTION ( 'NONE',  ( 1.000000000000000000, 0.0000000000000000000, 0.0000000000000000000 ) ) ;
#76 = CYLINDRICAL_SURFACE ( 'NONE', #112, 7.500000000000000000 ) ;
#77 = FACE_OUTER_BOUND ( 'NONE', #118, .T. ) ;
#78 = AXIS2_PLACEMENT_3D ( 'NONE', #253, #246, #245 ) ;
#79 = DIRECTION ( 'NONE',  ( 1.084959010446448800E-030, 7.857794173099998900E-032, 1.000000000000000000 ) ) ;
#80 =( GEOMETRIC_REPRESENTATION_CONTEXT ( 3 ) GLOBAL_UNCERTAINTY_ASSIGNED_CONTEXT ( ( #6 ) ) GLOBAL_UNIT_ASSIGNED_CONTEXT ( ( #242, #198, #191 ) ) REPRESENTATION_CONTEXT ( 'NONE', 'WORKASPACE' ) );
#81 = DIRECTION ( 'NONE',  ( -6.658766545477926900E-031, 7.857794173099998900E-032, 1.000000000000000000 ) ) ;
#82 = ADVANCED_FACE ( 'NONE', ( #324, #77 ), #251, .T. ) ;
#83 = CARTESIAN_POINT ( 'NONE',  ( -13.50000000000000500, 0.0000000000000000000, 5.999999999999991100 ) ) ;
#84 = FACE_OUTER_BOUND ( 'NONE', #166, .T. ) ;
#85 = ADVANCED_BREP_SHAPE_REPRESENTATION ( 'C1', ( #89, #291 ), #17 ) ;
#86 = ORIENTED_EDGE ( 'NONE', *, *, #337, .T. ) ;
#87 = CIRCLE ( 'NONE', #170, 4.000000000000001800 ) ;
#88 = DIRECTION ( 'NONE',  ( 1.000000000000000000, 0.0000000000000000000, 0.0000000000000000000 ) ) ;
#89 = MANIFOLD_SOLID_BREP ( 'C-1', #257 ) ;
#90 = CARTESIAN_POINT ( 'NONE',  ( -13.50000000000000700, 0.0000000000000000000, 0.5000000000000004400 ) ) ;
#91 = CONICAL_SURFACE ( 'NONE', #256, 6.000000000000001800, 0.2617993877991432500 ) ;
#92 = CARTESIAN_POINT ( 'NONE',  ( -13.50000000000000700, 0.0000000000000000000, 0.5000000000000004400 ) ) ;
#93 = DIRECTION ( 'NONE',  ( 1.000000000000000000, 0.0000000000000000000, 0.0000000000000000000 ) ) ;
#94 = MECHANICAL_DESIGN_GEOMETRIC_PRESENTATION_REPRESENTATION (  '', ( #141 ), #80 ) ;
#95 = DIRECTION ( 'NONE',  ( -6.658766545477926900E-031, 7.857794173099998900E-032, 1.000000000000000000 ) ) ;
#96 = EDGE_LOOP ( 'NONE', ( #298, #129, #54, #264 ) ) ;
#97 = CARTESIAN_POINT ( 'NONE',  ( -7.500000000000005300, 0.0000000000000000000, 5.999999999999991100 ) ) ;
#98 = DIRECTION ( 'NONE',  ( -1.084959010446448800E-030, -7.857794173099998900E-032, -1.000000000000000000 ) ) ;
#99 = COLOUR_RGB ( '',0.7529411764705882200, 0.7529411764705882200, 0.7529411764705882200 ) ;
#100 = FACE_OUTER_BOUND ( 'NONE', #148, .T. ) ;
#101 = PRESENTATION_LAYER_ASSIGNMENT (  '', '', ( #141 ) ) ;
#102 = CYLINDRICAL_SURFACE ( 'NONE', #131, 4.000000000000001800 ) ;
#103 = CARTESIAN_POINT ( 'NONE',  ( -13.50000000000000900, 0.0000000000000000000, 8.999999999999994700 ) ) ;
#104 = FACE_OUTER_BOUND ( 'NONE', #123, .T. ) ;
#105 = AXIS2_PLACEMENT_3D ( 'NONE', #250, #263, #215 ) ;
#106 = AXIS2_PLACEMENT_3D ( 'NONE', #172, #95, #287 ) ;
#107 = FACE_BOUND ( 'NONE', #48, .T. ) ;
#108 = ORIENTED_EDGE ( 'NONE', *, *, #303, .F. ) ;
#109 = VERTEX_POINT ( 'NONE', #194 ) ;
#110 = DIRECTION ( 'NONE',  ( -6.658766545477926900E-031, 7.857794173099998900E-032, 1.000000000000000000 ) ) ;
#111 = DIRECTION ( 'NONE',  ( 1.000000000000000000, 0.0000000000000000000, 0.0000000000000000000 ) ) ;
#112 = AXIS2_PLACEMENT_3D ( 'NONE', #237, #186, #266 ) ;
#113 = PRESENTATION_STYLE_ASSIGNMENT (( #331 ) ) ;
#114 = CARTESIAN_POINT ( 'NONE',  ( -13.50000000000000500, 0.0000000000000000000, 5.999999999999991100 ) ) ;
#115 = FACE_OUTER_BOUND ( 'NONE', #144, .T. ) ;
#116 = FACE_OUTER_BOUND ( 'NONE', #130, .T. ) ;
#117 = VERTEX_POINT ( 'NONE', #294 ) ;
#118 = EDGE_LOOP ( 'NONE', ( #195, #197 ) ) ;
#119 = DIRECTION ( 'NONE',  ( 1.000000000000000000, 0.0000000000000000000, 0.0000000000000000000 ) ) ;
#120 = EDGE_LOOP ( 'NONE', ( #174, #220, #208, #177 ) ) ;
#121 = DIRECTION ( 'NONE',  ( -1.000000000000000000, 0.0000000000000000000, 1.084959010446448800E-030 ) ) ;
#122 = CIRCLE ( 'NONE', #27, 7.500000000000000000 ) ;
#123 = EDGE_LOOP ( 'NONE', ( #178, #179, #86, #25 ) ) ;
#124 = AXIS2_PLACEMENT_3D ( 'NONE', #269, #79, #138 ) ;
#125 = EDGE_LOOP ( 'NONE', ( #199, #200, #206, #211 ) ) ;
#126 = EDGE_LOOP ( 'NONE', ( #270, #137 ) ) ;
#127 = AXIS2_PLACEMENT_3D ( 'NONE', #36, #14, #43 ) ;
#128 = CARTESIAN_POINT ( 'NONE',  ( -7.901923788646679500, 0.0000000000000000000, -1.000000000000000900 ) ) ;
#129 = ORIENTED_EDGE ( 'NONE', *, *, #248, .T. ) ;
#130 = EDGE_LOOP ( 'NONE', ( #214, #216 ) ) ;
#131 = AXIS2_PLACEMENT_3D ( 'NONE', #62, #44, #66 ) ;
#132 = DIRECTION ( 'NONE',  ( 1.000000000000000000, 0.0000000000000000000, 0.0000000000000000000 ) ) ;
#133 = VERTEX_POINT ( 'NONE', #213 ) ;
#134 = DIRECTION ( 'NONE',  ( 1.000000000000000000, 0.0000000000000000000, 0.0000000000000000000 ) ) ;
#135 = CYLINDRICAL_SURFACE ( 'NONE', #127, 6.000000000000001800 ) ;
#136 = CARTESIAN_POINT ( 'NONE',  ( -13.50000000000000900, 0.0000000000000000000, 8.999999999999994700 ) ) ;
#137 = ORIENTED_EDGE ( 'NONE', *, *, #293, .F. ) ;
#138 = DIRECTION ( 'NONE',  ( 1.000000000000000000, 0.0000000000000000000, -1.084959010446448800E-030 ) ) ;
#139 = EDGE_LOOP ( 'NONE', ( #279, #16 ) ) ;
#140 = CARTESIAN_POINT ( 'NONE',  ( -17.50000000000000700, 4.898587196589365500E-016, 4.500000000000003600 ) ) ;
#141 = STYLED_ITEM ( 'NONE', ( #64 ), #89 ) ;
#142 = DIRECTION ( 'NONE',  ( -6.658766545477926900E-031, 7.857794173099998900E-032, 1.000000000000000000 ) ) ;
#143 = FACE_OUTER_BOUND ( 'NONE', #125, .T. ) ;
#144 = EDGE_LOOP ( 'NONE', ( #283, #261, #258, #108 ) ) ;
#145 = DIRECTION ( 'NONE',  ( -6.658766545477926900E-031, 7.857794173099998900E-032, 1.000000000000000000 ) ) ;
#146 = CARTESIAN_POINT ( 'NONE',  ( -13.50000000000000700, 0.0000000000000000000, -1.000000000000000900 ) ) ;
#147 = ORIENTED_EDGE ( 'NONE', *, *, #275, .T. ) ;
#148 = EDGE_LOOP ( 'NONE', ( #32, #281, #42, #182 ) ) ;
#149 = CONICAL_SURFACE ( 'NONE', #18, 6.000000000000001800, 0.2617993877991432500 ) ;
#150 = DIRECTION ( 'NONE',  ( 1.000000000000000000, 0.0000000000000000000, 0.0000000000000000000 ) ) ;
#151 = DIRECTION ( 'NONE',  ( -6.658766545477926900E-031, 7.857794173099998900E-032, 1.000000000000000000 ) ) ;
#152 = CARTESIAN_POINT ( 'NONE',  ( -13.50000000000000700, 0.0000000000000000000, 0.5000000000000004400 ) ) ;
#153 = VERTEX_POINT ( 'NONE', #340 ) ;
#154 = VERTEX_POINT ( 'NONE', #315 ) ;
#155 = CIRCLE ( 'NONE', #55, 6.000000000000001800 ) ;
#156 = CIRCLE ( 'NONE', #49, 4.000000000000000000 ) ;
#157 = DIRECTION ( 'NONE',  ( -6.658766545477926900E-031, 7.857794173099998900E-032, 1.000000000000000000 ) ) ;
#158 = DIRECTION ( 'NONE',  ( 1.000000000000000000, 0.0000000000000000000, 0.0000000000000000000 ) ) ;
#159 = VERTEX_POINT ( 'NONE', #329 ) ;
#160 = DIRECTION ( 'NONE',  ( -6.658766545477926900E-031, 7.857794173099998900E-032, 1.000000000000000000 ) ) ;
#161 = DIRECTION ( 'NONE',  ( -6.658766545477926900E-031, 7.857794173099998900E-032, 1.000000000000000000 ) ) ;
#162 = PLANE ( 'NONE',  #308 ) ;
#163 = UNCERTAINTY_MEASURE_WITH_UNIT (LENGTH_MEASURE( 1.000000000000000100E-005 ), #341, 'distance_accuracy_value', 'NONE');
#164 = VERTEX_POINT ( 'NONE', #314 ) ;
#165 = AXIS2_PLACEMENT_3D ( 'NONE', #59, #13, #111 ) ;
#166 = EDGE_LOOP ( 'NONE', ( #236, #240, #244, #254 ) ) ;
#167 = CARTESIAN_POINT ( 'NONE',  ( -13.50000000000000700, 0.0000000000000000000, -1.000000000000000900 ) ) ;
#168 = DIRECTION ( 'NONE',  ( -6.658766545477926900E-031, 7.857794173099998900E-032, 1.000000000000000000 ) ) ;
#169 = VERTEX_POINT ( 'NONE', #312 ) ;
#170 = AXIS2_PLACEMENT_3D ( 'NONE', #136, #142, #134 ) ;
#171 = FILL_AREA_STYLE_COLOUR ( '', #99 ) ;
#172 = CARTESIAN_POINT ( 'NONE',  ( -13.50000000000000700, 0.0000000000000000000, 4.500000000000003600 ) ) ;
#173 = VERTEX_POINT ( 'NONE', #319 ) ;
#174 = ORIENTED_EDGE ( 'NONE', *, *, #249, .T. ) ;
#175 = DIRECTION ( 'NONE',  ( 0.2588190451025171300, 7.590046329461051100E-032, 0.9659258262890693100 ) ) ;
#176 = LINE ( 'NONE', #180, #252 ) ;
#177 = ORIENTED_EDGE ( 'NONE', *, *, #247, .F. ) ;
#178 = ORIENTED_EDGE ( 'NONE', *, *, #282, .F. ) ;
#179 = ORIENTED_EDGE ( 'NONE', *, *, #292, .T. ) ;
#180 = CARTESIAN_POINT ( 'NONE',  ( -7.500000000000005300, 0.0000000000000000000, 0.5000000000000004400 ) ) ;
#181 = DIRECTION ( 'NONE',  ( -0.2588190451025171300, 3.169619151431697800E-017, 0.9659258262890693100 ) ) ;
#182 = ORIENTED_EDGE ( 'NONE', *, *, #275, .F. ) ;
#183 = VERTEX_POINT ( 'NONE', #310 ) ;
#184 = DIRECTION ( 'NONE',  ( 1.000000000000000000, 0.0000000000000000000, 0.0000000000000000000 ) ) ;
#185 = ORIENTED_EDGE ( 'NONE', *, *, #271, .F. ) ;
#186 = DIRECTION ( 'NONE',  ( -6.658766545477926900E-031, 7.857794173099998900E-032, 1.000000000000000000 ) ) ;
#187 = VERTEX_POINT ( 'NONE', #309 ) ;
#188 = CARTESIAN_POINT ( 'NONE',  ( -13.50000000000000700, 0.0000000000000000000, -1.000000000000000900 ) ) ;
#189 = DIRECTION ( 'NONE',  ( -6.658766545477926900E-031, 7.857794173099998900E-032, 1.000000000000000000 ) ) ;
#190 = ADVANCED_FACE ( 'NONE', ( #41 ), #46, .T. ) ;
#191 =( NAMED_UNIT ( * ) SI_UNIT ( $, .STERADIAN. ) SOLID_ANGLE_UNIT ( ) );
#192 = CARTESIAN_POINT ( 'NONE',  ( -21.00000000000000400, 9.184850993605057200E-016, 4.500000000000003600 ) ) ;
#193 = ORIENTED_EDGE ( 'NONE', *, *, #277, .F. ) ;
#194 = CARTESIAN_POINT ( 'NONE',  ( -7.500000000000003600, 0.0000000000000000000, 5.999999999999991100 ) ) ;
#195 = ORIENTED_EDGE ( 'NONE', *, *, #262, .F. ) ;
#196 = DIRECTION ( 'NONE',  ( 1.000000000000000000, 0.0000000000000000000, 0.0000000000000000000 ) ) ;
#197 = ORIENTED_EDGE ( 'NONE', *, *, #276, .F. ) ;
#198 =( NAMED_UNIT ( * ) PLANE_ANGLE_UNIT ( ) SI_UNIT ( $, .RADIAN. ) );
#199 = ORIENTED_EDGE ( 'NONE', *, *, #292, .F. ) ;
#200 = ORIENTED_EDGE ( 'NONE', *, *, #278, .F. ) ;
#201 = SURFACE_STYLE_USAGE ( .BOTH. , #204 ) ;
#202 = DIRECTION ( 'NONE',  ( -6.658766545477926900E-031, 7.857794173099998900E-032, 1.000000000000000000 ) ) ;
#203 = PRODUCT_DEFINITION_SHAPE ( 'NONE', 'NONE',  #290 ) ;
#204 = SURFACE_SIDE_STYLE ('',( #73 ) ) ;
#205 = LINE ( 'NONE', #243, #221 ) ;
#206 = ORIENTED_EDGE ( 'NONE', *, *, #259, .T. ) ;
#207 = CARTESIAN_POINT ( 'NONE',  ( -13.50000000000000500, 0.0000000000000000000, 5.999999999999991100 ) ) ;
#208 = ORIENTED_EDGE ( 'NONE', *, *, #235, .F. ) ;
#209 = FACE_BOUND ( 'NONE', #302, .T. ) ;
#210 = FILL_AREA_STYLE ('',( #171 ) ) ;
#211 = ORIENTED_EDGE ( 'NONE', *, *, #286, .T. ) ;
#212 = DIRECTION ( 'NONE',  ( -6.658766545477926900E-031, 7.857794173099998900E-032, 1.000000000000000000 ) ) ;
#213 = CARTESIAN_POINT ( 'NONE',  ( -7.500000000000005300, 3.139393017665381200E-061, 0.5000000000000004400 ) ) ;
#214 = ORIENTED_EDGE ( 'NONE', *, *, #235, .T. ) ;
#215 = DIRECTION ( 'NONE',  ( -1.000000000000000000, 0.0000000000000000000, 1.084959010446448800E-030 ) ) ;
#216 = ORIENTED_EDGE ( 'NONE', *, *, #296, .T. ) ;
#217 = FACE_OUTER_BOUND ( 'NONE', #96, .T. ) ;
#218 = DIRECTION ( 'NONE',  ( -6.658766545477926900E-031, 7.857794173099998900E-032, 1.000000000000000000 ) ) ;
#219 = FACE_OUTER_BOUND ( 'NONE', #126, .T. ) ;
#220 = ORIENTED_EDGE ( 'NONE', *, *, #267, .T. ) ;
#221 = VECTOR ( 'NONE', #181, 999.9999999999998900 ) ;
#222 = ORIENTED_EDGE ( 'NONE', *, *, #286, .F. ) ;
#223 = DIRECTION ( 'NONE',  ( -6.658766545477926900E-031, 7.857794173099998900E-032, 1.000000000000000000 ) ) ;
#224 = ORIENTED_EDGE ( 'NONE', *, *, #337, .F. ) ;
#225 = VECTOR ( 'NONE', #168, 1000.000000000000000 ) ;
#226 = CARTESIAN_POINT ( 'NONE',  ( -6.000000000000007100, 0.0000000000000000000, 4.500000000000003600 ) ) ;
#227 = EDGE_CURVE ( 'NONE', #133, #109, #68, .T. ) ;
#228 = ORIENTED_EDGE ( 'NONE', *, *, #303, .T. ) ;
#229 = DIRECTION ( 'NONE',  ( 1.000000000000000000, 0.0000000000000000000, 0.0000000000000000000 ) ) ;
#230 = EDGE_CURVE ( 'NONE', #109, #164, #47, .T. ) ;
#231 = DIRECTION ( 'NONE',  ( -6.658766545477926900E-031, 7.857794173099998900E-032, 1.000000000000000000 ) ) ;
#232 = EDGE_CURVE ( 'NONE', #133, #153, #38, .T. ) ;
#233 = CARTESIAN_POINT ( 'NONE',  ( -13.50000000000000900, 0.0000000000000000000, 8.999999999999994700 ) ) ;
#234 = CYLINDRICAL_SURFACE ( 'NONE', #106, 4.000000000000001800 ) ;
#235 = EDGE_CURVE ( 'NONE', #183, #239, #65, .T. ) ;
#236 = ORIENTED_EDGE ( 'NONE', *, *, #267, .F. ) ;
#237 = CARTESIAN_POINT ( 'NONE',  ( -13.50000000000000700, 0.0000000000000000000, 4.500000000000003600 ) ) ;
#238 = LINE ( 'NONE', #192, #304 ) ;
#239 = VERTEX_POINT ( 'NONE', #260 ) ;
#240 = ORIENTED_EDGE ( 'NONE', *, *, #293, .T. ) ;
#241 = CARTESIAN_POINT ( 'NONE',  ( -9.500000000000005300, 0.0000000000000000000, 4.500000000000003600 ) ) ;
#242 =( LENGTH_UNIT ( ) NAMED_UNIT ( * ) SI_UNIT ( .MILLI., .METRE. ) );
#243 = CARTESIAN_POINT ( 'NONE',  ( -19.50000000000001100, 7.347880794884048700E-016, 0.5000000000000004400 ) ) ;
#244 = ORIENTED_EDGE ( 'NONE', *, *, #247, .T. ) ;
#245 = DIRECTION ( 'NONE',  ( 1.000000000000000000, 0.0000000000000000000, 0.0000000000000000000 ) ) ;
#246 = DIRECTION ( 'NONE',  ( -6.658766545477926900E-031, 7.857794173099998900E-032, 1.000000000000000000 ) ) ;
#247 = EDGE_CURVE ( 'NONE', #159, #183, #37, .T. ) ;
#248 = EDGE_CURVE ( 'NONE', #153, #164, #33, .T. ) ;
#249 = EDGE_CURVE ( 'NONE', #159, #187, #20, .T. ) ;
#250 = CARTESIAN_POINT ( 'NONE',  ( -7.901923788646679500, 0.0000000000000000000, -1.000000000000000900 ) ) ;
#251 = PLANE ( 'NONE',  #105 ) ;
#252 = VECTOR ( 'NONE', #175, 999.9999999999998900 ) ;
#253 = CARTESIAN_POINT ( 'NONE',  ( -13.50000000000000700, 0.0000000000000000000, 0.5000000000000004400 ) ) ;
#254 = ORIENTED_EDGE ( 'NONE', *, *, #296, .F. ) ;
#255 = ORIENTED_EDGE ( 'NONE', *, *, #230, .T. ) ;
#256 = AXIS2_PLACEMENT_3D ( 'NONE', #90, #81, #93 ) ;
#257 = CLOSED_SHELL ( 'NONE', ( #9, #190, #4, #5, #311, #82, #7, #12, #30, #1, #313 ) ) ;
#258 = ORIENTED_EDGE ( 'NONE', *, *, #227, .T. ) ;
#259 = EDGE_CURVE ( 'NONE', #154, #173, #34, .T. ) ;
#260 = CARTESIAN_POINT ( 'NONE',  ( -21.00000000000000700, 9.184850993605063100E-016, 8.999999999999994700 ) ) ;
#261 = ORIENTED_EDGE ( 'NONE', *, *, #277, .T. ) ;
#262 = EDGE_CURVE ( 'NONE', #300, #117, #3, .T. ) ;
#263 = DIRECTION ( 'NONE',  ( -1.084959010446448800E-030, -7.857794173099998900E-032, -1.000000000000000000 ) ) ;
#264 = ORIENTED_EDGE ( 'NONE', *, *, #227, .F. ) ;
#265 = DIRECTION ( 'NONE',  ( 1.000000000000000000, 0.0000000000000000000, 0.0000000000000000000 ) ) ;
#266 = DIRECTION ( 'NONE',  ( 1.000000000000000000, 0.0000000000000000000, 0.0000000000000000000 ) ) ;
#267 = EDGE_CURVE ( 'NONE', #187, #239, #238, .T. ) ;
#268 = EDGE_LOOP ( 'NONE', ( #185, #23, #147, #193 ) ) ;
#269 = CARTESIAN_POINT ( 'NONE',  ( -9.500000000000005300, 0.0000000000000000000, 8.999999999999994700 ) ) ;
#270 = ORIENTED_EDGE ( 'NONE', *, *, #249, .F. ) ;
#271 = EDGE_CURVE ( 'NONE', #117, #153, #205, .T. ) ;
#272 = PLANE ( 'NONE',  #124 ) ;
#273 = DIRECTION ( 'NONE',  ( -6.658766545477926900E-031, 7.857794173099998900E-032, 1.000000000000000000 ) ) ;
#274 = CARTESIAN_POINT ( 'NONE',  ( -13.50000000000000500, 0.0000000000000000000, 5.999999999999991100 ) ) ;
#275 = EDGE_CURVE ( 'NONE', #300, #133, #176, .T. ) ;
#276 = EDGE_CURVE ( 'NONE', #117, #300, #8, .T. ) ;
#277 = EDGE_CURVE ( 'NONE', #153, #133, #155, .T. ) ;
#278 = EDGE_CURVE ( 'NONE', #154, #306, #316, .T. ) ;
#279 = ORIENTED_EDGE ( 'NONE', *, *, #278, .T. ) ;
#280 = CARTESIAN_POINT ( 'NONE',  ( -19.50000000000001100, 7.347880794884048700E-016, 4.500000000000003600 ) ) ;
#281 = ORIENTED_EDGE ( 'NONE', *, *, #271, .T. ) ;
#282 = EDGE_CURVE ( 'NONE', #306, #154, #156, .T. ) ;
#283 = ORIENTED_EDGE ( 'NONE', *, *, #248, .F. ) ;
#284 = PRODUCT_RELATED_PRODUCT_CATEGORY ( 'part', '', ( #67 ) ) ;
#285 = PRODUCT_DEFINITION_FORMATION_WITH_SPECIFIED_SOURCE ( 'ANY', '', #67, .NOT_KNOWN. ) ;
#286 = EDGE_CURVE ( 'NONE', #173, #169, #87, .T. ) ;
#287 = DIRECTION ( 'NONE',  ( 1.000000000000000000, 0.0000000000000000000, 0.0000000000000000000 ) ) ;
#288 = CARTESIAN_POINT ( 'NONE',  ( -7.500000000000005300, 0.0000000000000000000, 4.500000000000003600 ) ) ;
#289 = DIRECTION ( 'NONE',  ( -6.658766545477926900E-031, 7.857794173099998900E-032, 1.000000000000000000 ) ) ;
#290 = PRODUCT_DEFINITION ( 'UNKNOWN', '', #285, #297 ) ;
#291 = AXIS2_PLACEMENT_3D ( 'NONE', #330, #325, #323 ) ;
#292 = EDGE_CURVE ( 'NONE', #306, #169, #295, .T. ) ;
#293 = EDGE_CURVE ( 'NONE', #187, #159, #122, .T. ) ;
#294 = CARTESIAN_POINT ( 'NONE',  ( -19.09807621135333700, 7.101773454250387700E-016, -1.000000000000000900 ) ) ;
#295 = LINE ( 'NONE', #140, #225 ) ;
#296 = EDGE_CURVE ( 'NONE', #239, #183, #29, .T. ) ;
#297 = PRODUCT_DEFINITION_CONTEXT ( 'detailed design', #321, 'design' ) ;
#298 = ORIENTED_EDGE ( 'NONE', *, *, #232, .T. ) ;
#299 = DIRECTION ( 'NONE',  ( 1.000000000000000000, 0.0000000000000000000, 0.0000000000000000000 ) ) ;
#300 = VERTEX_POINT ( 'NONE', #128 ) ;
#301 = CARTESIAN_POINT ( 'NONE',  ( -13.50000000000000700, 0.0000000000000000000, 4.500000000000003600 ) ) ;
#302 = EDGE_LOOP ( 'NONE', ( #222, #224 ) ) ;
#303 = EDGE_CURVE ( 'NONE', #164, #109, #40, .T. ) ;
#304 = VECTOR ( 'NONE', #189, 1000.000000000000000 ) ;
#305 =( GEOMETRIC_REPRESENTATION_CONTEXT ( 3 ) GLOBAL_UNCERTAINTY_ASSIGNED_CONTEXT ( ( #15 ) ) GLOBAL_UNIT_ASSIGNED_CONTEXT ( ( #328, #327, #326 ) ) REPRESENTATION_CONTEXT ( 'NONE', 'WORKASPACE' ) );
#306 = VERTEX_POINT ( 'NONE', #74 ) ;
#307 = DIRECTION ( 'NONE',  ( -6.658766545477926900E-031, 7.857794173099998900E-032, 1.000000000000000000 ) ) ;
#308 = AXIS2_PLACEMENT_3D ( 'NONE', #97, #98, #121 ) ;
#309 = CARTESIAN_POINT ( 'NONE',  ( -21.00000000000000400, 9.184850993605059200E-016, 5.999999999999991100 ) ) ;
#310 = CARTESIAN_POINT ( 'NONE',  ( -6.000000000000008900, 0.0000000000000000000, 8.999999999999994700 ) ) ;
#311 = ADVANCED_FACE ( 'NONE', ( #318 ), #149, .T. ) ;
#312 = CARTESIAN_POINT ( 'NONE',  ( -17.50000000000000700, 4.898587196589367500E-016, 8.999999999999994700 ) ) ;
#313 = ADVANCED_FACE ( 'NONE', ( #115 ), #50, .T. ) ;
#314 = CARTESIAN_POINT ( 'NONE',  ( -19.50000000000000700, 7.347880794884043800E-016, 5.999999999999991100 ) ) ;
#315 = CARTESIAN_POINT ( 'NONE',  ( -9.500000000000007100, 0.0000000000000000000, -1.000000000000000900 ) ) ;
#316 = CIRCLE ( 'NONE', #52, 4.000000000000000000 ) ;
#317 = MECHANICAL_DESIGN_GEOMETRIC_PRESENTATION_REPRESENTATION (  '', ( #10 ), #305 ) ;
#318 = FACE_OUTER_BOUND ( 'NONE', #268, .T. ) ;
#319 = CARTESIAN_POINT ( 'NONE',  ( -9.500000000000007100, 0.0000000000000000000, 8.999999999999994700 ) ) ;
#320 = APPLICATION_PROTOCOL_DEFINITION ( 'draft international standard', 'automotive_design', 1998, #321 ) ;
#321 = APPLICATION_CONTEXT ( 'automotive_design' ) ;
#322 = PRODUCT_CONTEXT ( 'NONE', #335, 'mechanical' ) ;
#323 = DIRECTION ( 'NONE',  ( 1.000000000000000000, 0.0000000000000000000, 0.0000000000000000000 ) ) ;
#324 = FACE_BOUND ( 'NONE', #139, .T. ) ;
#325 = DIRECTION ( 'NONE',  ( 0.0000000000000000000, 0.0000000000000000000, 1.000000000000000000 ) ) ;
#326 =( NAMED_UNIT ( * ) SI_UNIT ( $, .STERADIAN. ) SOLID_ANGLE_UNIT ( ) );
#327 =( NAMED_UNIT ( * ) PLANE_ANGLE_UNIT ( ) SI_UNIT ( $, .RADIAN. ) );
#328 =( LENGTH_UNIT ( ) NAMED_UNIT ( * ) SI_UNIT ( .MILLI., .METRE. ) );
#329 = CARTESIAN_POINT ( 'NONE',  ( -6.000000000000005300, 0.0000000000000000000, 5.999999999999991100 ) ) ;
#330 = CARTESIAN_POINT ( 'NONE',  ( 0.0000000000000000000, 0.0000000000000000000, 0.0000000000000000000 ) ) ;
#331 = SURFACE_STYLE_USAGE ( .BOTH. , #332 ) ;
#332 = SURFACE_SIDE_STYLE ('',( #28 ) ) ;
#333 = FILL_AREA_STYLE ('',( #19 ) ) ;
#334 = PRESENTATION_LAYER_ASSIGNMENT (  '', '', ( #10 ) ) ;
#335 = APPLICATION_CONTEXT ( 'automotive_design' ) ;
#336 = APPLICATION_PROTOCOL_DEFINITION ( 'draft international standard', 'automotive_design', 1998, #335 ) ;
#337 = EDGE_CURVE ( 'NONE', #169, #173, #61, .T. ) ;
#338 =( NAMED_UNIT ( * ) SI_UNIT ( $, .STERADIAN. ) SOLID_ANGLE_UNIT ( ) );
#339 =( NAMED_UNIT ( * ) PLANE_ANGLE_UNIT ( ) SI_UNIT ( $, .RADIAN. ) );
#340 = CARTESIAN_POINT ( 'NONE',  ( -19.50000000000001100, 7.347880794884048700E-016, 0.5000000000000004400 ) ) ;
#341 =( LENGTH_UNIT ( ) NAMED_UNIT ( * ) SI_UNIT ( .MILLI., .METRE. ) );
#342 = DIRECTION ( 'NONE',  ( 1.000000000000000000, 0.0000000000000000000, 0.0000000000000000000 ) ) ;
#343 = DIRECTION ( 'NONE',  ( -6.658766545477926900E-031, 7.857794173099998900E-032, 1.000000000000000000 ) ) ;
#344 = CARTESIAN_POINT ( 'NONE',  ( -13.50000000000000900, 0.0000000000000000000, 8.999999999999994700 ) ) ;
ENDSEC;
END-ISO-10303-21;
