ISO-10303-21;
HEADER;
/* Generated by software containing ST-Developer
 * from STEP Tools, Inc. (www.steptools.com) 
 */

FILE_DESCRIPTION(
/* description */ (''),
/* implementation_level */ '2;1');

FILE_NAME(
/* name */ 'Cale HD1000.step',
/* time_stamp */ '2022-11-26T20:45:39+01:00',
/* author */ (''),
/* organization */ (''),
/* preprocessor_version */ 'ST-DEVELOPER v19.2',
/* originating_system */ 'Autodesk Translation Framework v11.17.0.187',

/* authorisation */ '');

FILE_SCHEMA (('AUTOMOTIVE_DESIGN { 1 0 10303 214 3 1 1 }'));
ENDSEC;

DATA;
#10=MECHANICAL_DESIGN_GEOMETRIC_PRESENTATION_REPRESENTATION('',(#13),#471);
#11=SHAPE_REPRESENTATION_RELATIONSHIP('SRR','None',#478,#12);
#12=ADVANCED_BREP_SHAPE_REPRESENTATION('',(#14),#470);
#13=STYLED_ITEM('',(#487),#14);
#14=MANIFOLD_SOLID_BREP('Corps1',#283);
#15=FACE_BOUND('',#56,.T.);
#16=FACE_BOUND('',#57,.T.);
#17=FACE_BOUND('',#58,.T.);
#18=FACE_BOUND('',#59,.T.);
#19=FACE_BOUND('',#62,.T.);
#20=FACE_BOUND('',#63,.T.);
#21=FACE_BOUND('',#66,.T.);
#22=FACE_BOUND('',#67,.T.);
#23=ELLIPSE('',#301,2.50008151143934,2.5);
#24=ELLIPSE('',#304,2.50008151143935,2.5);
#25=CIRCLE('',#300,2.5);
#26=CIRCLE('',#303,2.5);
#27=CIRCLE('',#306,2.5000000372529);
#28=CIRCLE('',#307,2.50000009964763);
#29=CIRCLE('',#309,2.5);
#30=CIRCLE('',#310,2.50000006239472);
#31=CYLINDRICAL_SURFACE('',#299,2.5);
#32=CYLINDRICAL_SURFACE('',#302,2.5);
#33=CYLINDRICAL_SURFACE('',#305,2.5000000372529);
#34=CYLINDRICAL_SURFACE('',#308,2.5);
#35=FACE_OUTER_BOUND('',#49,.T.);
#36=FACE_OUTER_BOUND('',#50,.T.);
#37=FACE_OUTER_BOUND('',#51,.T.);
#38=FACE_OUTER_BOUND('',#52,.T.);
#39=FACE_OUTER_BOUND('',#53,.T.);
#40=FACE_OUTER_BOUND('',#54,.T.);
#41=FACE_OUTER_BOUND('',#55,.T.);
#42=FACE_OUTER_BOUND('',#60,.T.);
#43=FACE_OUTER_BOUND('',#61,.T.);
#44=FACE_OUTER_BOUND('',#64,.T.);
#45=FACE_OUTER_BOUND('',#65,.T.);
#46=FACE_OUTER_BOUND('',#68,.T.);
#47=FACE_OUTER_BOUND('',#69,.T.);
#48=FACE_OUTER_BOUND('',#70,.T.);
#49=EDGE_LOOP('',(#187,#188,#189,#190));
#50=EDGE_LOOP('',(#191,#192,#193,#194));
#51=EDGE_LOOP('',(#195,#196,#197,#198));
#52=EDGE_LOOP('',(#199,#200,#201,#202));
#53=EDGE_LOOP('',(#203,#204,#205,#206));
#54=EDGE_LOOP('',(#207,#208,#209,#210));
#55=EDGE_LOOP('',(#211,#212,#213,#214));
#56=EDGE_LOOP('',(#215));
#57=EDGE_LOOP('',(#216));
#58=EDGE_LOOP('',(#217));
#59=EDGE_LOOP('',(#218));
#60=EDGE_LOOP('',(#219,#220,#221,#222));
#61=EDGE_LOOP('',(#223,#224,#225,#226));
#62=EDGE_LOOP('',(#227));
#63=EDGE_LOOP('',(#228));
#64=EDGE_LOOP('',(#229,#230,#231,#232));
#65=EDGE_LOOP('',(#233,#234,#235,#236));
#66=EDGE_LOOP('',(#237));
#67=EDGE_LOOP('',(#238));
#68=EDGE_LOOP('',(#239,#240,#241,#242));
#69=EDGE_LOOP('',(#243,#244,#245,#246,#247,#248,#249,#250));
#70=EDGE_LOOP('',(#251,#252,#253,#254,#255,#256,#257,#258));
#71=LINE('',#397,#99);
#72=LINE('',#399,#100);
#73=LINE('',#401,#101);
#74=LINE('',#402,#102);
#75=LINE('',#406,#103);
#76=LINE('',#408,#104);
#77=LINE('',#410,#105);
#78=LINE('',#411,#106);
#79=LINE('',#416,#107);
#80=LINE('',#422,#108);
#81=LINE('',#428,#109);
#82=LINE('',#434,#110);
#83=LINE('',#439,#111);
#84=LINE('',#441,#112);
#85=LINE('',#443,#113);
#86=LINE('',#444,#114);
#87=LINE('',#447,#115);
#88=LINE('',#449,#116);
#89=LINE('',#450,#117);
#90=LINE('',#452,#118);
#91=LINE('',#453,#119);
#92=LINE('',#455,#120);
#93=LINE('',#456,#121);
#94=LINE('',#459,#122);
#95=LINE('',#461,#123);
#96=LINE('',#462,#124);
#97=LINE('',#464,#125);
#98=LINE('',#465,#126);
#99=VECTOR('',#323,10.);
#100=VECTOR('',#324,10.);
#101=VECTOR('',#325,10.);
#102=VECTOR('',#326,10.);
#103=VECTOR('',#329,10.);
#104=VECTOR('',#330,10.);
#105=VECTOR('',#331,10.);
#106=VECTOR('',#332,10.);
#107=VECTOR('',#337,2.5);
#108=VECTOR('',#344,2.5);
#109=VECTOR('',#351,2.5000000372529);
#110=VECTOR('',#358,2.5);
#111=VECTOR('',#363,10.);
#112=VECTOR('',#364,10.);
#113=VECTOR('',#365,10.);
#114=VECTOR('',#366,10.);
#115=VECTOR('',#369,10.);
#116=VECTOR('',#370,10.);
#117=VECTOR('',#371,10.);
#118=VECTOR('',#374,10.);
#119=VECTOR('',#375,10.);
#120=VECTOR('',#378,10.);
#121=VECTOR('',#379,10.);
#122=VECTOR('',#382,10.);
#123=VECTOR('',#383,10.);
#124=VECTOR('',#384,10.);
#125=VECTOR('',#387,10.);
#126=VECTOR('',#388,10.);
#127=VERTEX_POINT('',#395);
#128=VERTEX_POINT('',#396);
#129=VERTEX_POINT('',#398);
#130=VERTEX_POINT('',#400);
#131=VERTEX_POINT('',#404);
#132=VERTEX_POINT('',#405);
#133=VERTEX_POINT('',#407);
#134=VERTEX_POINT('',#409);
#135=VERTEX_POINT('',#413);
#136=VERTEX_POINT('',#415);
#137=VERTEX_POINT('',#419);
#138=VERTEX_POINT('',#421);
#139=VERTEX_POINT('',#425);
#140=VERTEX_POINT('',#427);
#141=VERTEX_POINT('',#431);
#142=VERTEX_POINT('',#433);
#143=VERTEX_POINT('',#437);
#144=VERTEX_POINT('',#438);
#145=VERTEX_POINT('',#440);
#146=VERTEX_POINT('',#442);
#147=VERTEX_POINT('',#446);
#148=VERTEX_POINT('',#448);
#149=VERTEX_POINT('',#458);
#150=VERTEX_POINT('',#460);
#151=EDGE_CURVE('',#127,#128,#71,.T.);
#152=EDGE_CURVE('',#127,#129,#72,.T.);
#153=EDGE_CURVE('',#129,#130,#73,.T.);
#154=EDGE_CURVE('',#130,#128,#74,.T.);
#155=EDGE_CURVE('',#131,#132,#75,.T.);
#156=EDGE_CURVE('',#132,#133,#76,.T.);
#157=EDGE_CURVE('',#133,#134,#77,.T.);
#158=EDGE_CURVE('',#131,#134,#78,.T.);
#159=EDGE_CURVE('',#135,#135,#25,.T.);
#160=EDGE_CURVE('',#135,#136,#79,.T.);
#161=EDGE_CURVE('',#136,#136,#23,.T.);
#162=EDGE_CURVE('',#137,#137,#26,.T.);
#163=EDGE_CURVE('',#137,#138,#80,.T.);
#164=EDGE_CURVE('',#138,#138,#24,.T.);
#165=EDGE_CURVE('',#139,#139,#27,.T.);
#166=EDGE_CURVE('',#139,#140,#81,.T.);
#167=EDGE_CURVE('',#140,#140,#28,.T.);
#168=EDGE_CURVE('',#141,#141,#29,.T.);
#169=EDGE_CURVE('',#141,#142,#82,.T.);
#170=EDGE_CURVE('',#142,#142,#30,.T.);
#171=EDGE_CURVE('',#143,#144,#83,.T.);
#172=EDGE_CURVE('',#143,#145,#84,.T.);
#173=EDGE_CURVE('',#146,#145,#85,.T.);
#174=EDGE_CURVE('',#144,#146,#86,.T.);
#175=EDGE_CURVE('',#147,#144,#87,.T.);
#176=EDGE_CURVE('',#148,#146,#88,.T.);
#177=EDGE_CURVE('',#147,#148,#89,.T.);
#178=EDGE_CURVE('',#128,#147,#90,.T.);
#179=EDGE_CURVE('',#127,#148,#91,.T.);
#180=EDGE_CURVE('',#132,#130,#92,.T.);
#181=EDGE_CURVE('',#129,#133,#93,.T.);
#182=EDGE_CURVE('',#149,#134,#94,.T.);
#183=EDGE_CURVE('',#150,#149,#95,.T.);
#184=EDGE_CURVE('',#150,#131,#96,.T.);
#185=EDGE_CURVE('',#150,#143,#97,.T.);
#186=EDGE_CURVE('',#145,#149,#98,.T.);
#187=ORIENTED_EDGE('',*,*,#151,.F.);
#188=ORIENTED_EDGE('',*,*,#152,.T.);
#189=ORIENTED_EDGE('',*,*,#153,.T.);
#190=ORIENTED_EDGE('',*,*,#154,.T.);
#191=ORIENTED_EDGE('',*,*,#155,.T.);
#192=ORIENTED_EDGE('',*,*,#156,.T.);
#193=ORIENTED_EDGE('',*,*,#157,.T.);
#194=ORIENTED_EDGE('',*,*,#158,.F.);
#195=ORIENTED_EDGE('',*,*,#159,.F.);
#196=ORIENTED_EDGE('',*,*,#160,.T.);
#197=ORIENTED_EDGE('',*,*,#161,.F.);
#198=ORIENTED_EDGE('',*,*,#160,.F.);
#199=ORIENTED_EDGE('',*,*,#162,.F.);
#200=ORIENTED_EDGE('',*,*,#163,.T.);
#201=ORIENTED_EDGE('',*,*,#164,.F.);
#202=ORIENTED_EDGE('',*,*,#163,.F.);
#203=ORIENTED_EDGE('',*,*,#165,.F.);
#204=ORIENTED_EDGE('',*,*,#166,.T.);
#205=ORIENTED_EDGE('',*,*,#167,.F.);
#206=ORIENTED_EDGE('',*,*,#166,.F.);
#207=ORIENTED_EDGE('',*,*,#168,.F.);
#208=ORIENTED_EDGE('',*,*,#169,.T.);
#209=ORIENTED_EDGE('',*,*,#170,.F.);
#210=ORIENTED_EDGE('',*,*,#169,.F.);
#211=ORIENTED_EDGE('',*,*,#171,.F.);
#212=ORIENTED_EDGE('',*,*,#172,.T.);
#213=ORIENTED_EDGE('',*,*,#173,.F.);
#214=ORIENTED_EDGE('',*,*,#174,.F.);
#215=ORIENTED_EDGE('',*,*,#161,.T.);
#216=ORIENTED_EDGE('',*,*,#164,.T.);
#217=ORIENTED_EDGE('',*,*,#165,.T.);
#218=ORIENTED_EDGE('',*,*,#168,.T.);
#219=ORIENTED_EDGE('',*,*,#175,.T.);
#220=ORIENTED_EDGE('',*,*,#174,.T.);
#221=ORIENTED_EDGE('',*,*,#176,.F.);
#222=ORIENTED_EDGE('',*,*,#177,.F.);
#223=ORIENTED_EDGE('',*,*,#151,.T.);
#224=ORIENTED_EDGE('',*,*,#178,.T.);
#225=ORIENTED_EDGE('',*,*,#177,.T.);
#226=ORIENTED_EDGE('',*,*,#179,.F.);
#227=ORIENTED_EDGE('',*,*,#159,.T.);
#228=ORIENTED_EDGE('',*,*,#162,.T.);
#229=ORIENTED_EDGE('',*,*,#180,.T.);
#230=ORIENTED_EDGE('',*,*,#153,.F.);
#231=ORIENTED_EDGE('',*,*,#181,.T.);
#232=ORIENTED_EDGE('',*,*,#156,.F.);
#233=ORIENTED_EDGE('',*,*,#158,.T.);
#234=ORIENTED_EDGE('',*,*,#182,.F.);
#235=ORIENTED_EDGE('',*,*,#183,.F.);
#236=ORIENTED_EDGE('',*,*,#184,.T.);
#237=ORIENTED_EDGE('',*,*,#167,.T.);
#238=ORIENTED_EDGE('',*,*,#170,.T.);
#239=ORIENTED_EDGE('',*,*,#185,.F.);
#240=ORIENTED_EDGE('',*,*,#183,.T.);
#241=ORIENTED_EDGE('',*,*,#186,.F.);
#242=ORIENTED_EDGE('',*,*,#172,.F.);
#243=ORIENTED_EDGE('',*,*,#180,.F.);
#244=ORIENTED_EDGE('',*,*,#155,.F.);
#245=ORIENTED_EDGE('',*,*,#184,.F.);
#246=ORIENTED_EDGE('',*,*,#185,.T.);
#247=ORIENTED_EDGE('',*,*,#171,.T.);
#248=ORIENTED_EDGE('',*,*,#175,.F.);
#249=ORIENTED_EDGE('',*,*,#178,.F.);
#250=ORIENTED_EDGE('',*,*,#154,.F.);
#251=ORIENTED_EDGE('',*,*,#179,.T.);
#252=ORIENTED_EDGE('',*,*,#176,.T.);
#253=ORIENTED_EDGE('',*,*,#173,.T.);
#254=ORIENTED_EDGE('',*,*,#186,.T.);
#255=ORIENTED_EDGE('',*,*,#182,.T.);
#256=ORIENTED_EDGE('',*,*,#157,.F.);
#257=ORIENTED_EDGE('',*,*,#181,.F.);
#258=ORIENTED_EDGE('',*,*,#152,.F.);
#259=PLANE('',#297);
#260=PLANE('',#298);
#261=PLANE('',#311);
#262=PLANE('',#312);
#263=PLANE('',#313);
#264=PLANE('',#314);
#265=PLANE('',#315);
#266=PLANE('',#316);
#267=PLANE('',#317);
#268=PLANE('',#318);
#269=ADVANCED_FACE('',(#35),#259,.T.);
#270=ADVANCED_FACE('',(#36),#260,.T.);
#271=ADVANCED_FACE('',(#37),#31,.F.);
#272=ADVANCED_FACE('',(#38),#32,.F.);
#273=ADVANCED_FACE('',(#39),#33,.F.);
#274=ADVANCED_FACE('',(#40),#34,.F.);
#275=ADVANCED_FACE('',(#41,#15,#16,#17,#18),#261,.T.);
#276=ADVANCED_FACE('',(#42),#262,.T.);
#277=ADVANCED_FACE('',(#43,#19,#20),#263,.T.);
#278=ADVANCED_FACE('',(#44),#264,.T.);
#279=ADVANCED_FACE('',(#45,#21,#22),#265,.T.);
#280=ADVANCED_FACE('',(#46),#266,.T.);
#281=ADVANCED_FACE('',(#47),#267,.T.);
#282=ADVANCED_FACE('',(#48),#268,.T.);
#283=CLOSED_SHELL('',(#269,#270,#271,#272,#273,#274,#275,#276,#277,#278,
#279,#280,#281,#282));
#284=DERIVED_UNIT_ELEMENT(#286,1.);
#285=DERIVED_UNIT_ELEMENT(#473,-3.);
#286=(
MASS_UNIT()
NAMED_UNIT(*)
SI_UNIT(.KILO.,.GRAM.)
);
#287=DERIVED_UNIT((#284,#285));
#288=MEASURE_REPRESENTATION_ITEM('density measure',
POSITIVE_RATIO_MEASURE(7850.),#287);
#289=PROPERTY_DEFINITION_REPRESENTATION(#294,#291);
#290=PROPERTY_DEFINITION_REPRESENTATION(#295,#292);
#291=REPRESENTATION('material name',(#293),#470);
#292=REPRESENTATION('density',(#288),#470);
#293=DESCRIPTIVE_REPRESENTATION_ITEM('Acier','Acier');
#294=PROPERTY_DEFINITION('material property','material name',#480);
#295=PROPERTY_DEFINITION('material property','density of part',#480);
#296=AXIS2_PLACEMENT_3D('placement',#393,#319,#320);
#297=AXIS2_PLACEMENT_3D('',#394,#321,#322);
#298=AXIS2_PLACEMENT_3D('',#403,#327,#328);
#299=AXIS2_PLACEMENT_3D('',#412,#333,#334);
#300=AXIS2_PLACEMENT_3D('',#414,#335,#336);
#301=AXIS2_PLACEMENT_3D('',#417,#338,#339);
#302=AXIS2_PLACEMENT_3D('',#418,#340,#341);
#303=AXIS2_PLACEMENT_3D('',#420,#342,#343);
#304=AXIS2_PLACEMENT_3D('',#423,#345,#346);
#305=AXIS2_PLACEMENT_3D('',#424,#347,#348);
#306=AXIS2_PLACEMENT_3D('',#426,#349,#350);
#307=AXIS2_PLACEMENT_3D('',#429,#352,#353);
#308=AXIS2_PLACEMENT_3D('',#430,#354,#355);
#309=AXIS2_PLACEMENT_3D('',#432,#356,#357);
#310=AXIS2_PLACEMENT_3D('',#435,#359,#360);
#311=AXIS2_PLACEMENT_3D('',#436,#361,#362);
#312=AXIS2_PLACEMENT_3D('',#445,#367,#368);
#313=AXIS2_PLACEMENT_3D('',#451,#372,#373);
#314=AXIS2_PLACEMENT_3D('',#454,#376,#377);
#315=AXIS2_PLACEMENT_3D('',#457,#380,#381);
#316=AXIS2_PLACEMENT_3D('',#463,#385,#386);
#317=AXIS2_PLACEMENT_3D('',#466,#389,#390);
#318=AXIS2_PLACEMENT_3D('',#467,#391,#392);
#319=DIRECTION('axis',(0.,0.,1.));
#320=DIRECTION('refdir',(1.,0.,0.));
#321=DIRECTION('center_axis',(1.,0.,0.));
#322=DIRECTION('ref_axis',(0.,0.,-1.));
#323=DIRECTION('',(0.,0.,1.));
#324=DIRECTION('',(0.,1.,0.));
#325=DIRECTION('',(0.,0.,1.));
#326=DIRECTION('',(0.,-1.,0.));
#327=DIRECTION('center_axis',(-1.,0.,0.));
#328=DIRECTION('ref_axis',(0.,0.,1.));
#329=DIRECTION('',(0.,1.,0.));
#330=DIRECTION('',(0.,0.,-1.));
#331=DIRECTION('',(0.,-1.,0.));
#332=DIRECTION('',(0.,0.,-1.));
#333=DIRECTION('center_axis',(0.00829843179697143,-0.999965567422054,0.));
#334=DIRECTION('ref_axis',(0.,0.,1.));
#335=DIRECTION('center_axis',(0.008298431796965,-0.999965567422054,0.));
#336=DIRECTION('ref_axis',(0.,0.,1.));
#337=DIRECTION('',(0.00829843179697143,-0.999965567422054,0.));
#338=DIRECTION('center_axis',(-0.000223418388791825,0.999999975042111,0.));
#339=DIRECTION('ref_axis',(-0.999999975042111,-0.000223418388791825,0.));
#340=DIRECTION('center_axis',(0.00829843179697143,-0.999965567422054,0.));
#341=DIRECTION('ref_axis',(0.,0.,1.));
#342=DIRECTION('center_axis',(0.008298431796965,-0.999965567422054,0.));
#343=DIRECTION('ref_axis',(0.,0.,1.));
#344=DIRECTION('',(0.00829843179697143,-0.999965567422054,0.));
#345=DIRECTION('center_axis',(-0.000223418388791825,0.999999975042111,0.));
#346=DIRECTION('ref_axis',(-0.999999975042111,-0.000223418388791824,0.));
#347=DIRECTION('center_axis',(-0.000223418388571502,0.999999975042111,0.));
#348=DIRECTION('ref_axis',(0.,0.,-1.));
#349=DIRECTION('center_axis',(-0.000223418388791825,0.999999975042111,0.));
#350=DIRECTION('ref_axis',(0.,0.,-1.));
#351=DIRECTION('',(-0.000223418388571502,0.999999975042111,0.));
#352=DIRECTION('center_axis',(0.,-1.,0.));
#353=DIRECTION('ref_axis',(-1.,0.,0.));
#354=DIRECTION('center_axis',(-0.000223418388571502,0.999999975042111,0.));
#355=DIRECTION('ref_axis',(0.,0.,-1.));
#356=DIRECTION('center_axis',(-0.000223418388791825,0.999999975042111,0.));
#357=DIRECTION('ref_axis',(0.,0.,-1.));
#358=DIRECTION('',(-0.000223418388571502,0.999999975042111,0.));
#359=DIRECTION('center_axis',(0.,-1.,0.));
#360=DIRECTION('ref_axis',(-1.,0.,0.));
#361=DIRECTION('center_axis',(0.000223418388791825,-0.999999975042111,0.));
#362=DIRECTION('ref_axis',(-0.999999975042111,-0.000223418388791825,0.));
#363=DIRECTION('',(0.999999975042111,0.000223418388791825,0.));
#364=DIRECTION('',(0.,0.,-1.));
#365=DIRECTION('',(-0.999999975042111,-0.000223418388791825,0.));
#366=DIRECTION('',(0.,0.,-1.));
#367=DIRECTION('center_axis',(1.,0.,0.));
#368=DIRECTION('ref_axis',(0.,-1.,0.));
#369=DIRECTION('',(0.,-1.,0.));
#370=DIRECTION('',(0.,-1.,0.));
#371=DIRECTION('',(0.,0.,-1.));
#372=DIRECTION('center_axis',(-0.008298431796965,0.999965567422054,0.));
#373=DIRECTION('ref_axis',(0.999965567422054,0.008298431796965,0.));
#374=DIRECTION('',(0.999965567422054,0.008298431796965,0.));
#375=DIRECTION('',(0.999965567422054,0.008298431796965,0.));
#376=DIRECTION('center_axis',(0.,1.,0.));
#377=DIRECTION('ref_axis',(1.,0.,0.));
#378=DIRECTION('',(1.,0.,0.));
#379=DIRECTION('',(-1.,0.,0.));
#380=DIRECTION('center_axis',(0.,1.,0.));
#381=DIRECTION('ref_axis',(1.,0.,0.));
#382=DIRECTION('',(1.,0.,0.));
#383=DIRECTION('',(0.,0.,-1.));
#384=DIRECTION('',(1.,0.,0.));
#385=DIRECTION('center_axis',(-1.,0.,0.));
#386=DIRECTION('ref_axis',(0.,1.,0.));
#387=DIRECTION('',(0.,-1.,0.));
#388=DIRECTION('',(0.,1.,0.));
#389=DIRECTION('center_axis',(0.,0.,1.));
#390=DIRECTION('ref_axis',(1.,0.,0.));
#391=DIRECTION('center_axis',(0.,0.,-1.));
#392=DIRECTION('ref_axis',(-1.,0.,0.));
#393=CARTESIAN_POINT('',(0.,0.,0.));
#394=CARTESIAN_POINT('Origin',(80.0000011622906,33.1829793549577,120.));
#395=CARTESIAN_POINT('',(80.0000011622906,25.0165978076154,0.));
#396=CARTESIAN_POINT('',(80.0000011622906,25.0165978076154,120.));
#397=CARTESIAN_POINT('',(80.0000011622906,25.0165978076154,120.));
#398=CARTESIAN_POINT('',(80.0000011622906,33.1829793549577,0.));
#399=CARTESIAN_POINT('',(80.0000011622906,33.1829793549577,0.));
#400=CARTESIAN_POINT('',(80.0000011622906,33.1829793549577,120.));
#401=CARTESIAN_POINT('',(80.0000011622906,33.1829793549577,120.));
#402=CARTESIAN_POINT('',(80.0000011622906,33.1829793549577,120.));
#403=CARTESIAN_POINT('Origin',(48.,25.1829793549577,120.));
#404=CARTESIAN_POINT('',(48.,25.1829793549577,120.));
#405=CARTESIAN_POINT('',(48.,33.1829793549577,120.));
#406=CARTESIAN_POINT('',(48.,25.1829793549577,120.));
#407=CARTESIAN_POINT('',(48.,33.1829793549577,0.));
#408=CARTESIAN_POINT('',(48.,33.1829793549577,120.));
#409=CARTESIAN_POINT('',(48.,25.1829793549577,0.));
#410=CARTESIAN_POINT('',(48.,25.1829793549577,0.));
#411=CARTESIAN_POINT('',(48.,25.1829793549577,120.));
#412=CARTESIAN_POINT('Origin',(90.5178397461958,25.1038823791889,100.000001490116));
#413=CARTESIAN_POINT('',(90.5178397461958,25.1038823791889,97.5000014901161));
#414=CARTESIAN_POINT('Origin',(90.5178397461958,25.1038823791884,100.000001490116));
#415=CARTESIAN_POINT('',(90.6166479995223,13.1974338451801,97.5000014901161));
#416=CARTESIAN_POINT('',(90.5178397461958,25.1038823791889,97.5000014901161));
#417=CARTESIAN_POINT('Origin',(90.6166479995223,13.1974338451801,100.000001490116));
#418=CARTESIAN_POINT('Origin',(90.5178397461958,25.1038823791889,20.0000002980232));
#419=CARTESIAN_POINT('',(90.5178397461958,25.1038823791889,17.5000002980232));
#420=CARTESIAN_POINT('Origin',(90.5178397461958,25.1038823791884,20.0000002980232));
#421=CARTESIAN_POINT('',(90.6166479995223,13.1974338451801,17.5000002980232));
#422=CARTESIAN_POINT('',(90.5178397461958,25.1038823791889,17.5000002980232));
#423=CARTESIAN_POINT('Origin',(90.6166479995223,13.1974338451801,20.0000002980232));
#424=CARTESIAN_POINT('Origin',(37.4970555967408,13.1855659511277,100.000001490116));
#425=CARTESIAN_POINT('',(37.4970555967408,13.1855659511277,102.500001527369));
#426=CARTESIAN_POINT('Origin',(37.4970555967408,13.1855659511502,100.000001490116));
#427=CARTESIAN_POINT('',(37.4943751539042,25.1829793549577,102.500001527369));
#428=CARTESIAN_POINT('',(37.4970555967408,13.1855659511277,102.500001527369));
#429=CARTESIAN_POINT('Origin',(37.4943751539042,25.1829793549577,100.000001490116));
#430=CARTESIAN_POINT('Origin',(37.4970555967408,13.1855659511277,20.0000002980232));
#431=CARTESIAN_POINT('',(37.4970555967408,13.1855659511277,22.5000002980232));
#432=CARTESIAN_POINT('Origin',(37.4970555967408,13.1855659511502,20.0000002980232));
#433=CARTESIAN_POINT('',(37.4943751539042,25.1829793549577,22.5000002980232));
#434=CARTESIAN_POINT('',(37.4970555967408,13.1855659511277,22.5000002980232));
#435=CARTESIAN_POINT('Origin',(37.4943751539042,25.1829793549577,20.0000002980232));
#436=CARTESIAN_POINT('Origin',(102.099997717887,13.1999994367361,120.));
#437=CARTESIAN_POINT('',(25.919691138703,13.1829793549577,120.));
#438=CARTESIAN_POINT('',(102.099997717887,13.1999994367361,120.));
#439=CARTESIAN_POINT('',(25.919691138703,13.1829793549577,120.));
#440=CARTESIAN_POINT('',(25.919691138703,13.1829793549577,0.));
#441=CARTESIAN_POINT('',(25.919691138703,13.1829793549577,120.));
#442=CARTESIAN_POINT('',(102.099997717887,13.1999994367361,0.));
#443=CARTESIAN_POINT('',(25.919691138703,13.1829793549577,0.));
#444=CARTESIAN_POINT('',(102.099997717887,13.1999994367361,120.));
#445=CARTESIAN_POINT('Origin',(102.099997717887,25.1999994367361,120.));
#446=CARTESIAN_POINT('',(102.099997717887,25.1999994367361,120.));
#447=CARTESIAN_POINT('',(102.099997717887,25.1999994367361,120.));
#448=CARTESIAN_POINT('',(102.099997717887,25.1999994367361,0.));
#449=CARTESIAN_POINT('',(102.099997717887,25.1999994367361,0.));
#450=CARTESIAN_POINT('',(102.099997717887,25.1999994367361,120.));
#451=CARTESIAN_POINT('Origin',(78.0000011622906,25.000000372529,120.));
#452=CARTESIAN_POINT('',(78.0000011622906,25.000000372529,120.));
#453=CARTESIAN_POINT('',(78.0000011622906,25.000000372529,0.));
#454=CARTESIAN_POINT('Origin',(50.,33.1829793549577,120.));
#455=CARTESIAN_POINT('',(50.,33.1829793549577,120.));
#456=CARTESIAN_POINT('',(50.,33.1829793549577,0.));
#457=CARTESIAN_POINT('Origin',(25.919691138703,25.1829793549577,120.));
#458=CARTESIAN_POINT('',(25.919691138703,25.1829793549577,0.));
#459=CARTESIAN_POINT('',(25.919691138703,25.1829793549577,0.));
#460=CARTESIAN_POINT('',(25.919691138703,25.1829793549577,120.));
#461=CARTESIAN_POINT('',(25.919691138703,25.1829793549577,120.));
#462=CARTESIAN_POINT('',(25.919691138703,25.1829793549577,120.));
#463=CARTESIAN_POINT('Origin',(25.919691138703,13.1829793549577,120.));
#464=CARTESIAN_POINT('',(25.919691138703,25.1829793549577,120.));
#465=CARTESIAN_POINT('',(25.919691138703,25.1829793549577,0.));
#466=CARTESIAN_POINT('Origin',(64.0098444282951,23.1829793549577,120.));
#467=CARTESIAN_POINT('Origin',(64.0098444282951,23.1829793549577,0.));
#468=UNCERTAINTY_MEASURE_WITH_UNIT(LENGTH_MEASURE(0.01),#472,
'DISTANCE_ACCURACY_VALUE',
'Maximum model space distance between geometric entities at asserted c
onnectivities');
#469=UNCERTAINTY_MEASURE_WITH_UNIT(LENGTH_MEASURE(0.01),#472,
'DISTANCE_ACCURACY_VALUE',
'Maximum model space distance between geometric entities at asserted c
onnectivities');
#470=(
GEOMETRIC_REPRESENTATION_CONTEXT(3)
GLOBAL_UNCERTAINTY_ASSIGNED_CONTEXT((#468))
GLOBAL_UNIT_ASSIGNED_CONTEXT((#472,#474,#475))
REPRESENTATION_CONTEXT('','3D')
);
#471=(
GEOMETRIC_REPRESENTATION_CONTEXT(3)
GLOBAL_UNCERTAINTY_ASSIGNED_CONTEXT((#469))
GLOBAL_UNIT_ASSIGNED_CONTEXT((#472,#474,#475))
REPRESENTATION_CONTEXT('','3D')
);
#472=(
LENGTH_UNIT()
NAMED_UNIT(*)
SI_UNIT(.MILLI.,.METRE.)
);
#473=(
LENGTH_UNIT()
NAMED_UNIT(*)
SI_UNIT($,.METRE.)
);
#474=(
NAMED_UNIT(*)
PLANE_ANGLE_UNIT()
SI_UNIT($,.RADIAN.)
);
#475=(
NAMED_UNIT(*)
SI_UNIT($,.STERADIAN.)
SOLID_ANGLE_UNIT()
);
#476=SHAPE_DEFINITION_REPRESENTATION(#477,#478);
#477=PRODUCT_DEFINITION_SHAPE('',$,#480);
#478=SHAPE_REPRESENTATION('',(#296),#470);
#479=PRODUCT_DEFINITION_CONTEXT('part definition',#484,'design');
#480=PRODUCT_DEFINITION('Cale HD1000','Cale HD1000',#481,#479);
#481=PRODUCT_DEFINITION_FORMATION('',$,#486);
#482=PRODUCT_RELATED_PRODUCT_CATEGORY('Cale HD1000','Cale HD1000',(#486));
#483=APPLICATION_PROTOCOL_DEFINITION('international standard',
'automotive_design',2009,#484);
#484=APPLICATION_CONTEXT(
'Core Data for Automotive Mechanical Design Process');
#485=PRODUCT_CONTEXT('part definition',#484,'mechanical');
#486=PRODUCT('Cale HD1000','Cale HD1000',$,(#485));
#487=PRESENTATION_STYLE_ASSIGNMENT((#488));
#488=SURFACE_STYLE_USAGE(.BOTH.,#489);
#489=SURFACE_SIDE_STYLE('',(#490));
#490=SURFACE_STYLE_FILL_AREA(#491);
#491=FILL_AREA_STYLE('Acier - Satin\X\E9',(#492));
#492=FILL_AREA_STYLE_COLOUR('Acier - Satin\X\E9',#493);
#493=COLOUR_RGB('Acier - Satin\X\E9',0.627450980392157,0.627450980392157,
0.627450980392157);
ENDSEC;
END-ISO-10303-21;
