ISO-10303-21;
HEADER;
FILE_DESCRIPTION (( 'STEP AP203' ),
    '1' );
FILE_NAME ('usilor 4 -- 15-11-23.STEP',
    '2022-11-15T10:02:56',
    ( '' ),
    ( '' ),
    'SwSTEP 2.0',
    'SolidWorks 2017',
    '' );
FILE_SCHEMA (( 'CONFIG_CONTROL_DESIGN' ));
ENDSEC;

DATA;
#1 = DIRECTION ( 'NONE',  ( 0.0000000000000000000, 1.000000000000000000, 0.0000000000000000000 ) ) ;
#2 = DIRECTION ( 'NONE',  ( 0.0000000000000000000, -0.0000000000000000000, 1.000000000000000000 ) ) ;
#3 = ORIENTED_EDGE ( 'NONE', *, *, #254, .F. ) ;
#4 = VERTEX_POINT ( 'NONE', #378 ) ;
#5 = EDGE_CURVE ( 'NONE', #208, #238, #114, .T. ) ;
#6 = AXIS2_PLACEMENT_3D ( 'NONE', #197, #165, #201 ) ;
#7 = ORIENTED_EDGE ( 'NONE', *, *, #53, .F. ) ;
#8 = CC_DESIGN_APPROVAL ( #127, ( #397 ) ) ;
#9 = PLANE ( 'NONE',  #128 ) ;
#10 = DIRECTION ( 'NONE',  ( 0.0000000000000000000, 0.0000000000000000000, -1.000000000000000000 ) ) ;
#11 = ORIENTED_EDGE ( 'NONE', *, *, #231, .T. ) ;
#12 = ORIENTED_EDGE ( 'NONE', *, *, #137, .T. ) ;
#13 = CARTESIAN_POINT ( 'NONE',  ( 0.0000000000000000000, -1.469576158976824300E-015, -12.00000000000000000 ) ) ;
#14 = VECTOR ( 'NONE', #213, 1000.000000000000000 ) ;
#15 = DIRECTION ( 'NONE',  ( -0.0000000000000000000, -1.000000000000000000, -0.0000000000000000000 ) ) ;
#16 = DIRECTION ( 'NONE',  ( -0.0000000000000000000, -1.000000000000000000, -0.0000000000000000000 ) ) ;
#17 = PLANE ( 'NONE',  #311 ) ;
#18 = ORIENTED_EDGE ( 'NONE', *, *, #357, .T. ) ;
#19 = FACE_OUTER_BOUND ( 'NONE', #157, .T. ) ;
#20 = CARTESIAN_POINT ( 'NONE',  ( 0.0000000000000000000, -1.469576158976824300E-015, 0.0000000000000000000 ) ) ;
#21 = ADVANCED_FACE ( 'NONE', ( #60, #374 ), #265, .T. ) ;
#22 = PERSON_AND_ORGANIZATION ( #206, #328 ) ;
#23 = APPLICATION_PROTOCOL_DEFINITION ( 'international standard', 'config_control_design', 1994, #107 ) ;
#24 = PERSON_AND_ORGANIZATION_ROLE ( 'design_supplier' ) ;
#25 = CIRCLE ( 'NONE', #271, 15.00000000000000000 ) ;
#26 = PERSON_AND_ORGANIZATION ( #206, #328 ) ;
#27 = DIRECTION ( 'NONE',  ( 0.0000000000000000000, 0.0000000000000000000, 1.000000000000000000 ) ) ;
#28 = EDGE_LOOP ( 'NONE', ( #3, #188, #352, #390 ) ) ;
#29 = CIRCLE ( 'NONE', #6, 15.00000000000000000 ) ;
#30 = AXIS2_PLACEMENT_3D ( 'NONE', #169, #15, #283 ) ;
#31 = LOCAL_TIME ( 11, 2, 56.00000000000000000, #35 ) ;
#32 = EDGE_CURVE ( 'NONE', #158, #218, #409, .T. ) ;
#33 = VERTEX_POINT ( 'NONE', #377 ) ;
#34 = DIRECTION ( 'NONE',  ( -0.0000000000000000000, -1.000000000000000000, -0.0000000000000000000 ) ) ;
#35 = COORDINATED_UNIVERSAL_TIME_OFFSET ( 1, 0, .AHEAD. ) ;
#36 = CARTESIAN_POINT ( 'NONE',  ( 1.959434878635764700E-015, 223.4127748761065400, 15.99999999999999600 ) ) ;
#37 = CARTESIAN_POINT ( 'NONE',  ( 1.836970198721029600E-015, -1.836970198721030000E-015, 15.00000000000000000 ) ) ;
#38 = AXIS2_PLACEMENT_3D ( 'NONE', #97, #239, #44 ) ;
#39 = APPROVAL_DATE_TIME ( #350, #127 ) ;
#40 = CARTESIAN_POINT ( 'NONE',  ( 0.0000000000000000000, 0.0000000000000000000, -12.00000000000000000 ) ) ;
#41 = DIRECTION ( 'NONE',  ( -0.0000000000000000000, -1.000000000000000000, -0.0000000000000000000 ) ) ;
#42 = ORIENTED_EDGE ( 'NONE', *, *, #290, .T. ) ;
#43 = ORIENTED_EDGE ( 'NONE', *, *, #32, .T. ) ;
#44 = DIRECTION ( 'NONE',  ( 0.0000000000000000000, 0.0000000000000000000, -1.000000000000000000 ) ) ;
#45 = AXIS2_PLACEMENT_3D ( 'NONE', #272, #34, #166 ) ;
#46 = ADVANCED_FACE ( 'NONE', ( #148 ), #396, .F. ) ;
#47 = EDGE_LOOP ( 'NONE', ( #87, #18, #42, #185 ) ) ;
#48 = CC_DESIGN_PERSON_AND_ORGANIZATION_ASSIGNMENT ( #292, #76, ( #387 ) ) ;
#49 = PERSON_AND_ORGANIZATION_ROLE ( 'design_owner' ) ;
#50 = DATE_AND_TIME ( #139, #275 ) ;
#51 = ORIENTED_EDGE ( 'NONE', *, *, #231, .F. ) ;
#52 = FACE_OUTER_BOUND ( 'NONE', #167, .T. ) ;
#53 = EDGE_CURVE ( 'NONE', #251, #366, #245, .T. ) ;
#54 = APPROVAL_PERSON_ORGANIZATION ( #22, #127, #182 ) ;
#55 = CARTESIAN_POINT ( 'NONE',  ( 0.0000000000000000000, 0.0000000000000000000, 0.0000000000000000000 ) ) ;
#56 = CIRCLE ( 'NONE', #45, 15.99999999999999600 ) ;
#57 = DIRECTION ( 'NONE',  ( 0.0000000000000000000, 0.0000000000000000000, -1.000000000000000000 ) ) ;
#58 = CALENDAR_DATE ( 2022, 15, 11 ) ;
#59 = CARTESIAN_POINT ( 'NONE',  ( 0.0000000000000000000, 0.0000000000000000000, 0.0000000000000000000 ) ) ;
#60 = FACE_BOUND ( 'NONE', #267, .T. ) ;
#61 = DIRECTION ( 'NONE',  ( 0.0000000000000000000, 0.0000000000000000000, -1.000000000000000000 ) ) ;
#62 = PRODUCT_DEFINITION ( 'UNKNOWN', '', #397, #135 ) ;
#63 = DIRECTION ( 'NONE',  ( -0.0000000000000000000, -1.000000000000000000, -0.0000000000000000000 ) ) ;
#64 = DIRECTION ( 'NONE',  ( -0.0000000000000000000, -1.000000000000000000, -0.0000000000000000000 ) ) ;
#65 = ORIENTED_EDGE ( 'NONE', *, *, #137, .F. ) ;
#66 = DIRECTION ( 'NONE',  ( -0.0000000000000000000, -1.000000000000000000, -0.0000000000000000000 ) ) ;
#67 = ORIENTED_EDGE ( 'NONE', *, *, #71, .F. ) ;
#68 = EDGE_LOOP ( 'NONE', ( #344, #222 ) ) ;
#69 = DIRECTION ( 'NONE',  ( 0.0000000000000000000, 0.0000000000000000000, -1.000000000000000000 ) ) ;
#70 = DIRECTION ( 'NONE',  ( 0.0000000000000000000, 1.000000000000000000, 0.0000000000000000000 ) ) ;
#71 = EDGE_CURVE ( 'NONE', #399, #146, #191, .T. ) ;
#72 = EDGE_LOOP ( 'NONE', ( #318, #338, #244, #133 ) ) ;
#73 = VERTEX_POINT ( 'NONE', #228 ) ;
#74 = DIRECTION ( 'NONE',  ( 0.0000000000000000000, 0.0000000000000000000, -1.000000000000000000 ) ) ;
#75 = ORIENTED_EDGE ( 'NONE', *, *, #53, .T. ) ;
#76 = PERSON_AND_ORGANIZATION_ROLE ( 'classification_officer' ) ;
#77 = APPROVAL_ROLE ( '' ) ;
#78 = ORIENTED_EDGE ( 'NONE', *, *, #90, .F. ) ;
#79 = ORIENTED_EDGE ( 'NONE', *, *, #281, .F. ) ;
#80 = VECTOR ( 'NONE', #324, 1000.000000000000000 ) ;
#81 = DIRECTION ( 'NONE',  ( 0.0000000000000000000, 0.0000000000000000000, -1.000000000000000000 ) ) ;
#82 = ORIENTED_EDGE ( 'NONE', *, *, #375, .F. ) ;
#83 = FACE_OUTER_BOUND ( 'NONE', #243, .T. ) ;
#84 = AXIS2_PLACEMENT_3D ( 'NONE', #234, #64, #233 ) ;
#85 = AXIS2_PLACEMENT_3D ( 'NONE', #147, #181, #81 ) ;
#86 = CARTESIAN_POINT ( 'NONE',  ( 1.836970198721029600E-015, 0.0000000000000000000, 15.00000000000000000 ) ) ;
#87 = ORIENTED_EDGE ( 'NONE', *, *, #336, .F. ) ;
#88 = DIRECTION ( 'NONE',  ( -0.0000000000000000000, -1.000000000000000000, -0.0000000000000000000 ) ) ;
#89 = PERSON_AND_ORGANIZATION ( #206, #328 ) ;
#90 = EDGE_CURVE ( 'NONE', #33, #218, #29, .T. ) ;
#91 = DIRECTION ( 'NONE',  ( -0.0000000000000000000, -1.000000000000000000, -0.0000000000000000000 ) ) ;
#92 = PRODUCT_DEFINITION_SHAPE ( 'NONE', 'NONE',  #62 ) ;
#93 = DIRECTION ( 'NONE',  ( -0.0000000000000000000, -1.000000000000000000, -0.0000000000000000000 ) ) ;
#94 = DIRECTION ( 'NONE',  ( -0.0000000000000000000, -1.000000000000000000, -0.0000000000000000000 ) ) ;
#95 = FACE_BOUND ( 'NONE', #227, .T. ) ;
#96 = CC_DESIGN_PERSON_AND_ORGANIZATION_ASSIGNMENT ( #26, #400, ( #62 ) ) ;
#97 = CARTESIAN_POINT ( 'NONE',  ( 0.0000000000000000000, 0.0000000000000000000, 0.0000000000000000000 ) ) ;
#98 = ORIENTED_EDGE ( 'NONE', *, *, #160, .T. ) ;
#99 = DIRECTION ( 'NONE',  ( -0.0000000000000000000, -1.000000000000000000, -0.0000000000000000000 ) ) ;
#100 = ORIENTED_EDGE ( 'NONE', *, *, #254, .T. ) ;
#101 = VERTEX_POINT ( 'NONE', #384 ) ;
#102 = CARTESIAN_POINT ( 'NONE',  ( 0.0000000000000000000, 223.4127748761065400, 0.0000000000000000000 ) ) ;
#103 = ADVANCED_FACE ( 'NONE', ( #83, #391 ), #9, .T. ) ;
#104 = AXIS2_PLACEMENT_3D ( 'NONE', #262, #88, #264 ) ;
#105 = FACE_OUTER_BOUND ( 'NONE', #198, .T. ) ;
#106 = ADVANCED_FACE ( 'NONE', ( #320 ), #134, .T. ) ;
#107 = APPLICATION_CONTEXT ( 'configuration controlled 3d designs of mechanical parts and assemblies' ) ;
#108 = AXIS2_PLACEMENT_3D ( 'NONE', #333, #170, #392 ) ;
#109 = AXIS2_PLACEMENT_3D ( 'NONE', #55, #91, #10 ) ;
#110 = PERSON_AND_ORGANIZATION_ROLE ( 'creator' ) ;
#111 = DIRECTION ( 'NONE',  ( -0.0000000000000000000, -1.000000000000000000, -0.0000000000000000000 ) ) ;
#112 = APPROVAL_PERSON_ORGANIZATION ( #216, #360, #285 ) ;
#113 = DIRECTION ( 'NONE',  ( 0.0000000000000000000, 0.0000000000000000000, -1.000000000000000000 ) ) ;
#114 = CIRCLE ( 'NONE', #115, 15.00000000000000000 ) ;
#115 = AXIS2_PLACEMENT_3D ( 'NONE', #406, #355, #380 ) ;
#116 = ORIENTED_EDGE ( 'NONE', *, *, #379, .F. ) ;
#117 = CALENDAR_DATE ( 2022, 15, 11 ) ;
#118 = CC_DESIGN_DATE_AND_TIME_ASSIGNMENT ( #50, #369, ( #62 ) ) ;
#119 = DIRECTION ( 'NONE',  ( -0.0000000000000000000, -1.000000000000000000, -0.0000000000000000000 ) ) ;
#120 = DIRECTION ( 'NONE',  ( -0.0000000000000000000, -1.000000000000000000, -0.0000000000000000000 ) ) ;
#121 = FACE_OUTER_BOUND ( 'NONE', #260, .T. ) ;
#122 = CARTESIAN_POINT ( 'NONE',  ( 1.836970198721029600E-015, 9.412774876106532000, 15.00000000000000000 ) ) ;
#123 = AXIS2_PLACEMENT_3D ( 'NONE', #207, #99, #74 ) ;
#124 = ORIENTED_EDGE ( 'NONE', *, *, #401, .F. ) ;
#125 = DIRECTION ( 'NONE',  ( 0.0000000000000000000, -1.000000000000000000, -0.0000000000000000000 ) ) ;
#126 = ORIENTED_EDGE ( 'NONE', *, *, #375, .T. ) ;
#127 = APPROVAL ( #398, 'UNSPECIFIED' ) ;
#128 = AXIS2_PLACEMENT_3D ( 'NONE', #195, #125, #304 ) ;
#129 = CARTESIAN_POINT ( 'NONE',  ( 1.836970198721029600E-015, 0.0000000000000000000, 15.00000000000000000 ) ) ;
#130 = COORDINATED_UNIVERSAL_TIME_OFFSET ( 1, 0, .AHEAD. ) ;
#131 = DIRECTION ( 'NONE',  ( 0.0000000000000000000, 0.0000000000000000000, -1.000000000000000000 ) ) ;
#132 = DIRECTION ( 'NONE',  ( 0.0000000000000000000, -1.000000000000000000, -0.0000000000000000000 ) ) ;
#133 = ORIENTED_EDGE ( 'NONE', *, *, #321, .F. ) ;
#134 = CYLINDRICAL_SURFACE ( 'NONE', #109, 16.00000000000000000 ) ;
#135 = DESIGN_CONTEXT ( 'detailed design', #178, 'design' ) ;
#136 = DIRECTION ( 'NONE',  ( 0.0000000000000000000, 0.0000000000000000000, -1.000000000000000000 ) ) ;
#137 = EDGE_CURVE ( 'NONE', #238, #208, #25, .T. ) ;
#138 = DATE_AND_TIME ( #403, #230 ) ;
#139 = CALENDAR_DATE ( 2022, 15, 11 ) ;
#140 = CARTESIAN_POINT ( 'NONE',  ( 0.0000000000000000000, -1.836970198721030000E-015, 0.0000000000000000000 ) ) ;
#141 = ADVANCED_FACE ( 'NONE', ( #19 ), #256, .T. ) ;
#142 = ORIENTED_EDGE ( 'NONE', *, *, #379, .T. ) ;
#143 = APPROVAL_STATUS ( 'not_yet_approved' ) ;
#144 = CARTESIAN_POINT ( 'NONE',  ( 0.0000000000000000000, 0.0000000000000000000, 0.0000000000000000000 ) ) ;
#145 = AXIS2_PLACEMENT_3D ( 'NONE', #371, #111, #286 ) ;
#146 = VERTEX_POINT ( 'NONE', #331 ) ;
#147 = CARTESIAN_POINT ( 'NONE',  ( 0.0000000000000000000, 238.0000000000000000, 0.0000000000000000000 ) ) ;
#148 = FACE_OUTER_BOUND ( 'NONE', #404, .T. ) ;
#149 = PERSON_AND_ORGANIZATION ( #206, #328 ) ;
#150 = ORIENTED_EDGE ( 'NONE', *, *, #301, .T. ) ;
#151 = EDGE_LOOP ( 'NONE', ( #65, #317 ) ) ;
#152 = AXIS2_PLACEMENT_3D ( 'NONE', #298, #155, #225 ) ;
#153 = FACE_OUTER_BOUND ( 'NONE', #72, .T. ) ;
#154 = CC_DESIGN_DATE_AND_TIME_ASSIGNMENT ( #138, #310, ( #387 ) ) ;
#155 = DIRECTION ( 'NONE',  ( -0.0000000000000000000, -1.000000000000000000, -0.0000000000000000000 ) ) ;
#156 = CARTESIAN_POINT ( 'NONE',  ( 0.0000000000000000000, 223.4127748761065400, 0.0000000000000000000 ) ) ;
#157 = EDGE_LOOP ( 'NONE', ( #395, #43, #78, #314 ) ) ;
#158 = VERTEX_POINT ( 'NONE', #122 ) ;
#159 = APPROVAL_PERSON_ORGANIZATION ( #89, #176, #77 ) ;
#160 = EDGE_CURVE ( 'NONE', #146, #399, #186, .T. ) ;
#161 = DIRECTION ( 'NONE',  ( -0.0000000000000000000, -1.000000000000000000, -0.0000000000000000000 ) ) ;
#162 = VERTEX_POINT ( 'NONE', #274 ) ;
#163 = LINE ( 'NONE', #40, #189 ) ;
#164 = UNCERTAINTY_MEASURE_WITH_UNIT (LENGTH_MEASURE( 1.000000000000000100E-005 ), #183, 'distance_accuracy_value', 'NONE');
#165 = DIRECTION ( 'NONE',  ( -0.0000000000000000000, -1.000000000000000000, -0.0000000000000000000 ) ) ;
#166 = DIRECTION ( 'NONE',  ( 0.0000000000000000000, 0.0000000000000000000, -1.000000000000000000 ) ) ;
#167 = EDGE_LOOP ( 'NONE', ( #323, #332 ) ) ;
#168 = CYLINDRICAL_SURFACE ( 'NONE', #84, 15.00000000000000000 ) ;
#169 = CARTESIAN_POINT ( 'NONE',  ( 0.0000000000000000000, 238.0000000000000000, 0.0000000000000000000 ) ) ;
#170 = DIRECTION ( 'NONE',  ( -0.0000000000000000000, -1.000000000000000000, -0.0000000000000000000 ) ) ;
#171 = ORIENTED_EDGE ( 'NONE', *, *, #357, .F. ) ;
#172 = VECTOR ( 'NONE', #327, 1000.000000000000000 ) ;
#173 = AXIS2_PLACEMENT_3D ( 'NONE', #59, #120, #303 ) ;
#174 = LINE ( 'NONE', #280, #359 ) ;
#175 = ADVANCED_FACE ( 'NONE', ( #153 ), #168, .T. ) ;
#176 = APPROVAL ( #143, 'UNSPECIFIED' ) ;
#177 = AXIS2_PLACEMENT_3D ( 'NONE', #385, #322, #61 ) ;
#178 = APPLICATION_CONTEXT ( 'configuration controlled 3d designs of mechanical parts and assemblies' ) ;
#179 = EDGE_LOOP ( 'NONE', ( #266, #98 ) ) ;
#180 = CYLINDRICAL_SURFACE ( 'NONE', #173, 15.00000000000000000 ) ;
#181 = DIRECTION ( 'NONE',  ( -0.0000000000000000000, -1.000000000000000000, -0.0000000000000000000 ) ) ;
#182 = APPROVAL_ROLE ( '' ) ;
#183 =( LENGTH_UNIT ( ) NAMED_UNIT ( * ) SI_UNIT ( .MILLI., .METRE. ) );
#184 = EDGE_CURVE ( 'NONE', #366, #190, #354, .T. ) ;
#185 = ORIENTED_EDGE ( 'NONE', *, *, #217, .F. ) ;
#186 = CIRCLE ( 'NONE', #177, 15.00000000000000000 ) ;
#187 = CALENDAR_DATE ( 2022, 15, 11 ) ;
#188 = ORIENTED_EDGE ( 'NONE', *, *, #5, .T. ) ;
#189 = VECTOR ( 'NONE', #63, 1000.000000000000000 ) ;
#190 = VERTEX_POINT ( 'NONE', #192 ) ;
#191 = CIRCLE ( 'NONE', #104, 15.00000000000000000 ) ;
#192 = CARTESIAN_POINT ( 'NONE',  ( 0.0000000000000000000, 9.412774876106532000, -16.00000000000000000 ) ) ;
#193 = DATE_AND_TIME ( #58, #212 ) ;
#194 = LOCAL_TIME ( 11, 2, 56.00000000000000000, #221 ) ;
#195 = CARTESIAN_POINT ( 'NONE',  ( 0.0000000000000000000, 9.412774876106532000, 0.0000000000000000000 ) ) ;
#196 = AXIS2_PLACEMENT_3D ( 'NONE', #278, #132, #364 ) ;
#197 = CARTESIAN_POINT ( 'NONE',  ( 0.0000000000000000000, -1.836970198721030000E-015, 0.0000000000000000000 ) ) ;
#198 = EDGE_LOOP ( 'NONE', ( #11, #287, #116, #383 ) ) ;
#199 = AXIS2_PLACEMENT_3D ( 'NONE', #144, #27, #253 ) ;
#200 = AXIS2_PLACEMENT_3D ( 'NONE', #305, #93, #131 ) ;
#201 = DIRECTION ( 'NONE',  ( 0.0000000000000000000, 0.0000000000000000000, -1.000000000000000000 ) ) ;
#202 = PRODUCT ( 'usilor 4 -- 15-11-23', 'usilor 4 -- 15-11-23', '', ( #219 ) ) ;
#203 = CARTESIAN_POINT ( 'NONE',  ( 1.836970198721029600E-015, 238.0000000000000000, 15.00000000000000000 ) ) ;
#204 = CYLINDRICAL_SURFACE ( 'NONE', #38, 15.00000000000000000 ) ;
#205 = CARTESIAN_POINT ( 'NONE',  ( 0.0000000000000000000, 9.412774876106532000, 0.0000000000000000000 ) ) ;
#206 = PERSON ( 'UNSPECIFIED', 'UNSPECIFIED', 'UNSPECIFIED', ('UNSPECIFIED'), ('UNSPECIFIED'), ('UNSPECIFIED') ) ;
#207 = CARTESIAN_POINT ( 'NONE',  ( 0.0000000000000000000, -1.469576158976824300E-015, 0.0000000000000000000 ) ) ;
#208 = VERTEX_POINT ( 'NONE', #203 ) ;
#209 = DIRECTION ( 'NONE',  ( 0.0000000000000000000, 0.0000000000000000000, -1.000000000000000000 ) ) ;
#210 = EDGE_CURVE ( 'NONE', #4, #158, #326, .T. ) ;
#211 = MANIFOLD_SOLID_BREP ( 'Révolution1', #346 ) ;
#212 = LOCAL_TIME ( 11, 2, 56.00000000000000000, #220 ) ;
#213 = DIRECTION ( 'NONE',  ( -0.0000000000000000000, -1.000000000000000000, -0.0000000000000000000 ) ) ;
#214 = DIRECTION ( 'NONE',  ( -0.0000000000000000000, -1.000000000000000000, -0.0000000000000000000 ) ) ;
#215 = EDGE_LOOP ( 'NONE', ( #51, #7 ) ) ;
#216 = PERSON_AND_ORGANIZATION ( #206, #328 ) ;
#217 = EDGE_CURVE ( 'NONE', #101, #255, #163, .T. ) ;
#218 = VERTEX_POINT ( 'NONE', #37 ) ;
#219 = MECHANICAL_CONTEXT ( 'NONE', #107, 'mechanical' ) ;
#220 = COORDINATED_UNIVERSAL_TIME_OFFSET ( 1, 0, .AHEAD. ) ;
#221 = COORDINATED_UNIVERSAL_TIME_OFFSET ( 1, 0, .AHEAD. ) ;
#222 = ORIENTED_EDGE ( 'NONE', *, *, #348, .F. ) ;
#223 = AXIS2_PLACEMENT_3D ( 'NONE', #308, #276, #136 ) ;
#224 = CC_DESIGN_PERSON_AND_ORGANIZATION_ASSIGNMENT ( #356, #49, ( #202 ) ) ;
#225 = DIRECTION ( 'NONE',  ( 0.0000000000000000000, 0.0000000000000000000, -1.000000000000000000 ) ) ;
#226 = AXIS2_PLACEMENT_3D ( 'NONE', #362, #94, #382 ) ;
#227 = EDGE_LOOP ( 'NONE', ( #82, #325 ) ) ;
#228 = CARTESIAN_POINT ( 'NONE',  ( 1.469576158976823900E-015, -1.469576158976824300E-015, 12.00000000000000000 ) ) ;
#229 = DIRECTION ( 'NONE',  ( -0.0000000000000000000, -1.000000000000000000, -0.0000000000000000000 ) ) ;
#230 = LOCAL_TIME ( 11, 2, 56.00000000000000000, #252 ) ;
#231 = EDGE_CURVE ( 'NONE', #366, #251, #56, .T. ) ;
#232 = CARTESIAN_POINT ( 'NONE',  ( 0.0000000000000000000, 238.0000000000000000, -15.00000000000000000 ) ) ;
#233 = DIRECTION ( 'NONE',  ( 0.0000000000000000000, 0.0000000000000000000, -1.000000000000000000 ) ) ;
#234 = CARTESIAN_POINT ( 'NONE',  ( 0.0000000000000000000, 0.0000000000000000000, 0.0000000000000000000 ) ) ;
#235 = APPROVAL_DATE_TIME ( #293, #360 ) ;
#236 = DIRECTION ( 'NONE',  ( 0.0000000000000000000, 0.0000000000000000000, -1.000000000000000000 ) ) ;
#237 = CARTESIAN_POINT ( 'NONE',  ( 0.0000000000000000000, 223.4127748761065400, -15.99999999999999600 ) ) ;
#238 = VERTEX_POINT ( 'NONE', #232 ) ;
#239 = DIRECTION ( 'NONE',  ( -0.0000000000000000000, -1.000000000000000000, -0.0000000000000000000 ) ) ;
#240 = CIRCLE ( 'NONE', #223, 16.00000000000000000 ) ;
#241 = DIRECTION ( 'NONE',  ( -0.0000000000000000000, -1.000000000000000000, -0.0000000000000000000 ) ) ;
#242 = DIRECTION ( 'NONE',  ( -0.0000000000000000000, -1.000000000000000000, -0.0000000000000000000 ) ) ;
#243 = EDGE_LOOP ( 'NONE', ( #142, #150 ) ) ;
#244 = ORIENTED_EDGE ( 'NONE', *, *, #365, .T. ) ;
#245 = CIRCLE ( 'NONE', #394, 15.99999999999999600 ) ;
#246 = PLANE ( 'NONE',  #196 ) ;
#247 = ADVANCED_FACE ( 'NONE', ( #334 ), #180, .T. ) ;
#248 = CIRCLE ( 'NONE', #330, 15.00000000000000000 ) ;
#249 = CC_DESIGN_PERSON_AND_ORGANIZATION_ASSIGNMENT ( #149, #24, ( #397 ) ) ;
#250 = APPLICATION_PROTOCOL_DEFINITION ( 'international standard', 'config_control_design', 1994, #178 ) ;
#251 = VERTEX_POINT ( 'NONE', #36 ) ;
#252 = COORDINATED_UNIVERSAL_TIME_OFFSET ( 1, 0, .AHEAD. ) ;
#253 = DIRECTION ( 'NONE',  ( 1.000000000000000000, 0.0000000000000000000, 0.0000000000000000000 ) ) ;
#254 = EDGE_CURVE ( 'NONE', #208, #146, #261, .T. ) ;
#255 = VERTEX_POINT ( 'NONE', #13 ) ;
#256 = CYLINDRICAL_SURFACE ( 'NONE', #226, 15.00000000000000000 ) ;
#257 = CYLINDRICAL_SURFACE ( 'NONE', #108, 12.00000000000000000 ) ;
#258 = CIRCLE ( 'NONE', #294, 15.00000000000000000 ) ;
#259 = VERTEX_POINT ( 'NONE', #300 ) ;
#260 = EDGE_LOOP ( 'NONE', ( #12, #100, #67, #79 ) ) ;
#261 = LINE ( 'NONE', #129, #80 ) ;
#262 = CARTESIAN_POINT ( 'NONE',  ( 0.0000000000000000000, 223.4127748761065400, 0.0000000000000000000 ) ) ;
#263 = VECTOR ( 'NONE', #66, 1000.000000000000000 ) ;
#264 = DIRECTION ( 'NONE',  ( 0.0000000000000000000, 0.0000000000000000000, -1.000000000000000000 ) ) ;
#265 = PLANE ( 'NONE',  #358 ) ;
#266 = ORIENTED_EDGE ( 'NONE', *, *, #71, .T. ) ;
#267 = EDGE_LOOP ( 'NONE', ( #295, #408 ) ) ;
#268 = CARTESIAN_POINT ( 'NONE',  ( 0.0000000000000000000, 0.0000000000000000000, -16.00000000000000000 ) ) ;
#269 = FACE_BOUND ( 'NONE', #179, .T. ) ;
#270 = CC_DESIGN_PERSON_AND_ORGANIZATION_ASSIGNMENT ( #347, #110, ( #397 ) ) ;
#271 = AXIS2_PLACEMENT_3D ( 'NONE', #388, #161, #236 ) ;
#272 = CARTESIAN_POINT ( 'NONE',  ( 0.0000000000000000000, 223.4127748761065400, 0.0000000000000000000 ) ) ;
#273 = LINE ( 'NONE', #367, #14 ) ;
#274 = CARTESIAN_POINT ( 'NONE',  ( 1.469576158976823900E-015, 238.0000000000000000, 12.00000000000000000 ) ) ;
#275 = LOCAL_TIME ( 11, 2, 56.00000000000000000, #130 ) ;
#276 = DIRECTION ( 'NONE',  ( -0.0000000000000000000, -1.000000000000000000, -0.0000000000000000000 ) ) ;
#277 = CIRCLE ( 'NONE', #123, 12.00000000000000000 ) ;
#278 = CARTESIAN_POINT ( 'NONE',  ( 0.0000000000000000000, -1.653273178848927100E-015, 0.0000000000000000000 ) ) ;
#279 = EDGE_LOOP ( 'NONE', ( #299, #75, #361, #337 ) ) ;
#280 = CARTESIAN_POINT ( 'NONE',  ( 1.469576158976823900E-015, 0.0000000000000000000, 12.00000000000000000 ) ) ;
#281 = EDGE_CURVE ( 'NONE', #238, #399, #273, .T. ) ;
#282 = ADVANCED_FACE ( 'NONE', ( #52, #95 ), #246, .T. ) ;
#283 = DIRECTION ( 'NONE',  ( 0.0000000000000000000, 0.0000000000000000000, -1.000000000000000000 ) ) ;
#284 = VECTOR ( 'NONE', #241, 1000.000000000000000 ) ;
#285 = APPROVAL_ROLE ( '' ) ;
#286 = DIRECTION ( 'NONE',  ( 0.0000000000000000000, 0.0000000000000000000, -1.000000000000000000 ) ) ;
#287 = ORIENTED_EDGE ( 'NONE', *, *, #306, .T. ) ;
#288 = SECURITY_CLASSIFICATION_LEVEL ( 'unclassified' ) ;
#289 = CYLINDRICAL_SURFACE ( 'NONE', #145, 16.00000000000000000 ) ;
#290 = EDGE_CURVE ( 'NONE', #73, #255, #277, .T. ) ;
#291 = DIRECTION ( 'NONE',  ( 0.0000000000000000000, 0.0000000000000000000, -1.000000000000000000 ) ) ;
#292 = PERSON_AND_ORGANIZATION ( #206, #328 ) ;
#293 = DATE_AND_TIME ( #187, #31 ) ;
#294 = AXIS2_PLACEMENT_3D ( 'NONE', #140, #16, #209 ) ;
#295 = ORIENTED_EDGE ( 'NONE', *, *, #401, .T. ) ;
#296 = CC_DESIGN_APPROVAL ( #360, ( #62 ) ) ;
#297 = CIRCLE ( 'NONE', #85, 12.00000000000000000 ) ;
#298 = CARTESIAN_POINT ( 'NONE',  ( 0.0000000000000000000, 0.0000000000000000000, 0.0000000000000000000 ) ) ;
#299 = ORIENTED_EDGE ( 'NONE', *, *, #306, .F. ) ;
#300 = CARTESIAN_POINT ( 'NONE',  ( 1.959434878635765100E-015, 9.412774876106532000, 16.00000000000000000 ) ) ;
#301 = EDGE_CURVE ( 'NONE', #259, #190, #240, .T. ) ;
#302 = CIRCLE ( 'NONE', #370, 12.00000000000000000 ) ;
#303 = DIRECTION ( 'NONE',  ( 0.0000000000000000000, 0.0000000000000000000, -1.000000000000000000 ) ) ;
#304 = DIRECTION ( 'NONE',  ( 0.0000000000000000000, 0.0000000000000000000, -1.000000000000000000 ) ) ;
#305 = CARTESIAN_POINT ( 'NONE',  ( 0.0000000000000000000, 9.412774876106532000, 0.0000000000000000000 ) ) ;
#306 = EDGE_CURVE ( 'NONE', #251, #259, #349, .T. ) ;
#307 = ORIENTED_EDGE ( 'NONE', *, *, #217, .T. ) ;
#308 = CARTESIAN_POINT ( 'NONE',  ( 0.0000000000000000000, 9.412774876106532000, 0.0000000000000000000 ) ) ;
#309 = ADVANCED_FACE ( 'NONE', ( #269, #351 ), #17, .T. ) ;
#310 = DATE_TIME_ROLE ( 'classification_date' ) ;
#311 = AXIS2_PLACEMENT_3D ( 'NONE', #102, #70, #389 ) ;
#312 = CC_DESIGN_APPROVAL ( #176, ( #387 ) ) ;
#313 = SHAPE_DEFINITION_REPRESENTATION ( #92, #372 ) ;
#314 = ORIENTED_EDGE ( 'NONE', *, *, #365, .F. ) ;
#315 = CARTESIAN_POINT ( 'NONE',  ( 0.0000000000000000000, 9.412774876106532000, 0.0000000000000000000 ) ) ;
#316 = APPROVAL_DATE_TIME ( #193, #176 ) ;
#317 = ORIENTED_EDGE ( 'NONE', *, *, #5, .F. ) ;
#318 = ORIENTED_EDGE ( 'NONE', *, *, #32, .F. ) ;
#319 = CARTESIAN_POINT ( 'NONE',  ( 0.0000000000000000000, 238.0000000000000000, 0.0000000000000000000 ) ) ;
#320 = FACE_OUTER_BOUND ( 'NONE', #279, .T. ) ;
#321 = EDGE_CURVE ( 'NONE', #218, #33, #258, .T. ) ;
#322 = DIRECTION ( 'NONE',  ( -0.0000000000000000000, -1.000000000000000000, -0.0000000000000000000 ) ) ;
#323 = ORIENTED_EDGE ( 'NONE', *, *, #90, .T. ) ;
#324 = DIRECTION ( 'NONE',  ( -0.0000000000000000000, -1.000000000000000000, -0.0000000000000000000 ) ) ;
#325 = ORIENTED_EDGE ( 'NONE', *, *, #290, .F. ) ;
#326 = CIRCLE ( 'NONE', #200, 15.00000000000000000 ) ;
#327 = DIRECTION ( 'NONE',  ( -0.0000000000000000000, -1.000000000000000000, -0.0000000000000000000 ) ) ;
#328 = ORGANIZATION ( 'UNSPECIFIED', 'UNSPECIFIED', '' ) ;
#329 = CIRCLE ( 'NONE', #30, 12.00000000000000000 ) ;
#330 = AXIS2_PLACEMENT_3D ( 'NONE', #205, #41, #69 ) ;
#331 = CARTESIAN_POINT ( 'NONE',  ( 1.836970198721029600E-015, 223.4127748761065400, 15.00000000000000000 ) ) ;
#332 = ORIENTED_EDGE ( 'NONE', *, *, #321, .T. ) ;
#333 = CARTESIAN_POINT ( 'NONE',  ( 0.0000000000000000000, 0.0000000000000000000, 0.0000000000000000000 ) ) ;
#334 = FACE_OUTER_BOUND ( 'NONE', #28, .T. ) ;
#335 = CARTESIAN_POINT ( 'NONE',  ( 0.0000000000000000000, 0.0000000000000000000, -15.00000000000000000 ) ) ;
#336 = EDGE_CURVE ( 'NONE', #162, #101, #329, .T. ) ;
#337 = ORIENTED_EDGE ( 'NONE', *, *, #301, .F. ) ;
#338 = ORIENTED_EDGE ( 'NONE', *, *, #348, .T. ) ;
#339 = DIRECTION ( 'NONE',  ( -0.0000000000000000000, -1.000000000000000000, -0.0000000000000000000 ) ) ;
#340 =( GEOMETRIC_REPRESENTATION_CONTEXT ( 3 ) GLOBAL_UNCERTAINTY_ASSIGNED_CONTEXT ( ( #164 ) ) GLOBAL_UNIT_ASSIGNED_CONTEXT ( ( #183, #402, #341 ) ) REPRESENTATION_CONTEXT ( 'NONE', 'WORKASPACE' ) );
#341 =( NAMED_UNIT ( * ) SI_UNIT ( $, .STERADIAN. ) SOLID_ANGLE_UNIT ( ) );
#342 = ADVANCED_FACE ( 'NONE', ( #343 ), #257, .F. ) ;
#343 = FACE_OUTER_BOUND ( 'NONE', #47, .T. ) ;
#344 = ORIENTED_EDGE ( 'NONE', *, *, #210, .F. ) ;
#345 = CARTESIAN_POINT ( 'NONE',  ( 0.0000000000000000000, 223.4127748761065400, -15.00000000000000000 ) ) ;
#346 = CLOSED_SHELL ( 'NONE', ( #141, #393, #368, #342, #282, #46, #21, #247, #309, #106, #103, #175 ) ) ;
#347 = PERSON_AND_ORGANIZATION ( #206, #328 ) ;
#348 = EDGE_CURVE ( 'NONE', #158, #4, #248, .T. ) ;
#349 = LINE ( 'NONE', #363, #263 ) ;
#350 = DATE_AND_TIME ( #117, #194 ) ;
#351 = FACE_OUTER_BOUND ( 'NONE', #215, .T. ) ;
#352 = ORIENTED_EDGE ( 'NONE', *, *, #281, .T. ) ;
#353 = CC_DESIGN_SECURITY_CLASSIFICATION ( #387, ( #397 ) ) ;
#354 = LINE ( 'NONE', #268, #172 ) ;
#355 = DIRECTION ( 'NONE',  ( -0.0000000000000000000, -1.000000000000000000, -0.0000000000000000000 ) ) ;
#356 = PERSON_AND_ORGANIZATION ( #206, #328 ) ;
#357 = EDGE_CURVE ( 'NONE', #162, #73, #174, .T. ) ;
#358 = AXIS2_PLACEMENT_3D ( 'NONE', #319, #1, #2 ) ;
#359 = VECTOR ( 'NONE', #339, 1000.000000000000000 ) ;
#360 = APPROVAL ( #373, 'UNSPECIFIED' ) ;
#361 = ORIENTED_EDGE ( 'NONE', *, *, #184, .T. ) ;
#362 = CARTESIAN_POINT ( 'NONE',  ( 0.0000000000000000000, 0.0000000000000000000, 0.0000000000000000000 ) ) ;
#363 = CARTESIAN_POINT ( 'NONE',  ( 1.959434878635765100E-015, 0.0000000000000000000, 16.00000000000000000 ) ) ;
#364 = DIRECTION ( 'NONE',  ( 0.0000000000000000000, 0.0000000000000000000, -1.000000000000000000 ) ) ;
#365 = EDGE_CURVE ( 'NONE', #4, #33, #386, .T. ) ;
#366 = VERTEX_POINT ( 'NONE', #237 ) ;
#367 = CARTESIAN_POINT ( 'NONE',  ( 0.0000000000000000000, 0.0000000000000000000, -15.00000000000000000 ) ) ;
#368 = ADVANCED_FACE ( 'NONE', ( #121 ), #204, .T. ) ;
#369 = DATE_TIME_ROLE ( 'creation_date' ) ;
#370 = AXIS2_PLACEMENT_3D ( 'NONE', #20, #242, #291 ) ;
#371 = CARTESIAN_POINT ( 'NONE',  ( 0.0000000000000000000, 0.0000000000000000000, 0.0000000000000000000 ) ) ;
#372 = ADVANCED_BREP_SHAPE_REPRESENTATION ( 'usilor 4 -- 15-11-23', ( #211, #199 ), #340 ) ;
#373 = APPROVAL_STATUS ( 'not_yet_approved' ) ;
#374 = FACE_OUTER_BOUND ( 'NONE', #151, .T. ) ;
#375 = EDGE_CURVE ( 'NONE', #255, #73, #302, .T. ) ;
#376 = AXIS2_PLACEMENT_3D ( 'NONE', #315, #214, #113 ) ;
#377 = CARTESIAN_POINT ( 'NONE',  ( 0.0000000000000000000, -1.836970198721030000E-015, -15.00000000000000000 ) ) ;
#378 = CARTESIAN_POINT ( 'NONE',  ( 0.0000000000000000000, 9.412774876106532000, -15.00000000000000000 ) ) ;
#379 = EDGE_CURVE ( 'NONE', #190, #259, #381, .T. ) ;
#380 = DIRECTION ( 'NONE',  ( 0.0000000000000000000, 0.0000000000000000000, -1.000000000000000000 ) ) ;
#381 = CIRCLE ( 'NONE', #376, 16.00000000000000000 ) ;
#382 = DIRECTION ( 'NONE',  ( 0.0000000000000000000, 0.0000000000000000000, -1.000000000000000000 ) ) ;
#383 = ORIENTED_EDGE ( 'NONE', *, *, #184, .F. ) ;
#384 = CARTESIAN_POINT ( 'NONE',  ( 0.0000000000000000000, 238.0000000000000000, -12.00000000000000000 ) ) ;
#385 = CARTESIAN_POINT ( 'NONE',  ( 0.0000000000000000000, 223.4127748761065400, 0.0000000000000000000 ) ) ;
#386 = LINE ( 'NONE', #335, #284 ) ;
#387 = SECURITY_CLASSIFICATION ( '', '', #288 ) ;
#388 = CARTESIAN_POINT ( 'NONE',  ( 0.0000000000000000000, 238.0000000000000000, 0.0000000000000000000 ) ) ;
#389 = DIRECTION ( 'NONE',  ( 0.0000000000000000000, -0.0000000000000000000, 1.000000000000000000 ) ) ;
#390 = ORIENTED_EDGE ( 'NONE', *, *, #160, .F. ) ;
#391 = FACE_BOUND ( 'NONE', #68, .T. ) ;
#392 = DIRECTION ( 'NONE',  ( 0.0000000000000000000, 0.0000000000000000000, -1.000000000000000000 ) ) ;
#393 = ADVANCED_FACE ( 'NONE', ( #105 ), #289, .T. ) ;
#394 = AXIS2_PLACEMENT_3D ( 'NONE', #156, #229, #57 ) ;
#395 = ORIENTED_EDGE ( 'NONE', *, *, #210, .T. ) ;
#396 = CYLINDRICAL_SURFACE ( 'NONE', #152, 12.00000000000000000 ) ;
#397 = PRODUCT_DEFINITION_FORMATION_WITH_SPECIFIED_SOURCE ( 'ANY', '', #202, .NOT_KNOWN. ) ;
#398 = APPROVAL_STATUS ( 'not_yet_approved' ) ;
#399 = VERTEX_POINT ( 'NONE', #345 ) ;
#400 = PERSON_AND_ORGANIZATION_ROLE ( 'creator' ) ;
#401 = EDGE_CURVE ( 'NONE', #101, #162, #297, .T. ) ;
#402 =( NAMED_UNIT ( * ) PLANE_ANGLE_UNIT ( ) SI_UNIT ( $, .RADIAN. ) );
#403 = CALENDAR_DATE ( 2022, 15, 11 ) ;
#404 = EDGE_LOOP ( 'NONE', ( #171, #124, #307, #126 ) ) ;
#405 = VECTOR ( 'NONE', #119, 1000.000000000000000 ) ;
#406 = CARTESIAN_POINT ( 'NONE',  ( 0.0000000000000000000, 238.0000000000000000, 0.0000000000000000000 ) ) ;
#407 = PRODUCT_RELATED_PRODUCT_CATEGORY ( 'detail', '', ( #202 ) ) ;
#408 = ORIENTED_EDGE ( 'NONE', *, *, #336, .T. ) ;
#409 = LINE ( 'NONE', #86, #405 ) ;
ENDSEC;
END-ISO-10303-21;
