ISO-10303-21;
HEADER;
/* Generated by software containing ST-Developer
 * from STEP Tools, Inc. (www.steptools.com) 
 */

FILE_DESCRIPTION(
/* description */ (''),
/* implementation_level */ '2;1');

FILE_NAME(
/* name */ 'Niji.step',
/* time_stamp */ '2022-10-29T20:10:18+02:00',
/* author */ (''),
/* organization */ (''),
/* preprocessor_version */ 'ST-DEVELOPER v19.2',
/* originating_system */ 'Autodesk Translation Framework v11.17.0.187',

/* authorisation */ '');

FILE_SCHEMA (('AUTOMOTIVE_DESIGN { 1 0 10303 214 3 1 1 }'));
ENDSEC;

DATA;
#10=MECHANICAL_DESIGN_GEOMETRIC_PRESENTATION_REPRESENTATION('',(#13),#566);
#11=SHAPE_REPRESENTATION_RELATIONSHIP('SRR','None',#573,#12);
#12=ADVANCED_BREP_SHAPE_REPRESENTATION('',(#14),#565);
#13=STYLED_ITEM('',(#582),#14);
#14=MANIFOLD_SOLID_BREP('Corps3',#334);
#15=FACE_BOUND('',#55,.T.);
#16=PLANE('',#354);
#17=PLANE('',#361);
#18=PLANE('',#362);
#19=PLANE('',#363);
#20=PLANE('',#365);
#21=PLANE('',#366);
#22=PLANE('',#369);
#23=PLANE('',#370);
#24=PLANE('',#371);
#25=PLANE('',#372);
#26=PLANE('',#373);
#27=PLANE('',#374);
#28=PLANE('',#375);
#29=FACE_OUTER_BOUND('',#47,.T.);
#30=FACE_OUTER_BOUND('',#48,.T.);
#31=FACE_OUTER_BOUND('',#49,.T.);
#32=FACE_OUTER_BOUND('',#50,.T.);
#33=FACE_OUTER_BOUND('',#51,.T.);
#34=FACE_OUTER_BOUND('',#52,.T.);
#35=FACE_OUTER_BOUND('',#53,.T.);
#36=FACE_OUTER_BOUND('',#54,.T.);
#37=FACE_OUTER_BOUND('',#56,.T.);
#38=FACE_OUTER_BOUND('',#57,.T.);
#39=FACE_OUTER_BOUND('',#58,.T.);
#40=FACE_OUTER_BOUND('',#59,.T.);
#41=FACE_OUTER_BOUND('',#60,.T.);
#42=FACE_OUTER_BOUND('',#61,.T.);
#43=FACE_OUTER_BOUND('',#62,.T.);
#44=FACE_OUTER_BOUND('',#63,.T.);
#45=FACE_OUTER_BOUND('',#64,.T.);
#46=FACE_OUTER_BOUND('',#65,.T.);
#47=EDGE_LOOP('',(#221,#222,#223,#224));
#48=EDGE_LOOP('',(#225,#226,#227,#228));
#49=EDGE_LOOP('',(#229,#230,#231,#232));
#50=EDGE_LOOP('',(#233,#234,#235,#236));
#51=EDGE_LOOP('',(#237,#238,#239,#240));
#52=EDGE_LOOP('',(#241,#242,#243,#244));
#53=EDGE_LOOP('',(#245,#246,#247,#248));
#54=EDGE_LOOP('',(#249,#250,#251,#252));
#55=EDGE_LOOP('',(#253));
#56=EDGE_LOOP('',(#254,#255,#256,#257));
#57=EDGE_LOOP('',(#258,#259,#260,#261,#262,#263,#264,#265,#266,#267,#268,
#269,#270,#271));
#58=EDGE_LOOP('',(#272,#273,#274,#275));
#59=EDGE_LOOP('',(#276));
#60=EDGE_LOOP('',(#277,#278,#279,#280));
#61=EDGE_LOOP('',(#281,#282,#283,#284));
#62=EDGE_LOOP('',(#285,#286,#287,#288));
#63=EDGE_LOOP('',(#289,#290,#291,#292));
#64=EDGE_LOOP('',(#293,#294,#295,#296,#297,#298,#299,#300,#301,#302,#303,
#304,#305,#306));
#65=EDGE_LOOP('',(#307,#308,#309,#310));
#66=LINE('',#475,#101);
#67=LINE('',#478,#102);
#68=LINE('',#484,#103);
#69=LINE('',#487,#104);
#70=LINE('',#489,#105);
#71=LINE('',#490,#106);
#72=LINE('',#496,#107);
#73=LINE('',#499,#108);
#74=LINE('',#505,#109);
#75=LINE('',#508,#110);
#76=LINE('',#510,#111);
#77=LINE('',#511,#112);
#78=LINE('',#514,#113);
#79=LINE('',#516,#114);
#80=LINE('',#517,#115);
#81=LINE('',#519,#116);
#82=LINE('',#520,#117);
#83=LINE('',#525,#118);
#84=LINE('',#527,#119);
#85=LINE('',#528,#120);
#86=LINE('',#531,#121);
#87=LINE('',#533,#122);
#88=LINE('',#535,#123);
#89=LINE('',#537,#124);
#90=LINE('',#538,#125);
#91=LINE('',#541,#126);
#92=LINE('',#546,#127);
#93=LINE('',#547,#128);
#94=LINE('',#550,#129);
#95=LINE('',#551,#130);
#96=LINE('',#554,#131);
#97=LINE('',#555,#132);
#98=LINE('',#558,#133);
#99=LINE('',#559,#134);
#100=LINE('',#561,#135);
#101=VECTOR('',#382,10.);
#102=VECTOR('',#385,10.);
#103=VECTOR('',#390,10.);
#104=VECTOR('',#393,10.);
#105=VECTOR('',#396,10.);
#106=VECTOR('',#397,10.);
#107=VECTOR('',#402,10.);
#108=VECTOR('',#405,10.);
#109=VECTOR('',#410,10.);
#110=VECTOR('',#413,10.);
#111=VECTOR('',#416,10.);
#112=VECTOR('',#417,10.);
#113=VECTOR('',#420,10.);
#114=VECTOR('',#421,10.);
#115=VECTOR('',#422,10.);
#116=VECTOR('',#425,10.);
#117=VECTOR('',#426,10.);
#118=VECTOR('',#431,10.);
#119=VECTOR('',#432,10.);
#120=VECTOR('',#433,10.);
#121=VECTOR('',#436,10.);
#122=VECTOR('',#437,10.);
#123=VECTOR('',#438,10.);
#124=VECTOR('',#439,10.);
#125=VECTOR('',#440,10.);
#126=VECTOR('',#443,32.5);
#127=VECTOR('',#450,10.);
#128=VECTOR('',#451,10.);
#129=VECTOR('',#454,10.);
#130=VECTOR('',#455,10.);
#131=VECTOR('',#458,10.);
#132=VECTOR('',#459,10.);
#133=VECTOR('',#462,10.);
#134=VECTOR('',#463,10.);
#135=VECTOR('',#466,10.);
#136=CIRCLE('',#349,1151.5999999999);
#137=CIRCLE('',#350,1151.5999999999);
#138=CIRCLE('',#352,1148.4);
#139=CIRCLE('',#353,1148.4);
#140=CIRCLE('',#356,1151.5999999999);
#141=CIRCLE('',#357,1151.5999999999);
#142=CIRCLE('',#359,1148.4);
#143=CIRCLE('',#360,1148.4);
#144=CIRCLE('',#364,32.5);
#145=CIRCLE('',#368,32.5);
#146=VERTEX_POINT('',#471);
#147=VERTEX_POINT('',#472);
#148=VERTEX_POINT('',#474);
#149=VERTEX_POINT('',#476);
#150=VERTEX_POINT('',#480);
#151=VERTEX_POINT('',#481);
#152=VERTEX_POINT('',#483);
#153=VERTEX_POINT('',#485);
#154=VERTEX_POINT('',#492);
#155=VERTEX_POINT('',#493);
#156=VERTEX_POINT('',#495);
#157=VERTEX_POINT('',#497);
#158=VERTEX_POINT('',#501);
#159=VERTEX_POINT('',#502);
#160=VERTEX_POINT('',#504);
#161=VERTEX_POINT('',#506);
#162=VERTEX_POINT('',#513);
#163=VERTEX_POINT('',#515);
#164=VERTEX_POINT('',#521);
#165=VERTEX_POINT('',#524);
#166=VERTEX_POINT('',#526);
#167=VERTEX_POINT('',#530);
#168=VERTEX_POINT('',#532);
#169=VERTEX_POINT('',#534);
#170=VERTEX_POINT('',#536);
#171=VERTEX_POINT('',#540);
#172=VERTEX_POINT('',#545);
#173=VERTEX_POINT('',#549);
#174=VERTEX_POINT('',#553);
#175=VERTEX_POINT('',#557);
#176=EDGE_CURVE('',#146,#147,#136,.T.);
#177=EDGE_CURVE('',#148,#146,#66,.T.);
#178=EDGE_CURVE('',#148,#149,#137,.T.);
#179=EDGE_CURVE('',#147,#149,#67,.T.);
#180=EDGE_CURVE('',#150,#151,#138,.T.);
#181=EDGE_CURVE('',#152,#150,#68,.T.);
#182=EDGE_CURVE('',#152,#153,#139,.T.);
#183=EDGE_CURVE('',#151,#153,#69,.T.);
#184=EDGE_CURVE('',#149,#152,#70,.T.);
#185=EDGE_CURVE('',#153,#148,#71,.T.);
#186=EDGE_CURVE('',#154,#155,#140,.T.);
#187=EDGE_CURVE('',#156,#154,#72,.T.);
#188=EDGE_CURVE('',#156,#157,#141,.T.);
#189=EDGE_CURVE('',#155,#157,#73,.T.);
#190=EDGE_CURVE('',#158,#159,#142,.T.);
#191=EDGE_CURVE('',#160,#158,#74,.T.);
#192=EDGE_CURVE('',#160,#161,#143,.T.);
#193=EDGE_CURVE('',#159,#161,#75,.T.);
#194=EDGE_CURVE('',#157,#160,#76,.T.);
#195=EDGE_CURVE('',#161,#156,#77,.T.);
#196=EDGE_CURVE('',#155,#162,#78,.T.);
#197=EDGE_CURVE('',#163,#162,#79,.T.);
#198=EDGE_CURVE('',#163,#154,#80,.T.);
#199=EDGE_CURVE('',#151,#158,#81,.T.);
#200=EDGE_CURVE('',#159,#150,#82,.T.);
#201=EDGE_CURVE('',#164,#164,#144,.T.);
#202=EDGE_CURVE('',#147,#165,#83,.T.);
#203=EDGE_CURVE('',#166,#165,#84,.T.);
#204=EDGE_CURVE('',#166,#146,#85,.T.);
#205=EDGE_CURVE('',#167,#163,#86,.T.);
#206=EDGE_CURVE('',#168,#167,#87,.T.);
#207=EDGE_CURVE('',#168,#169,#88,.T.);
#208=EDGE_CURVE('',#169,#170,#89,.T.);
#209=EDGE_CURVE('',#165,#170,#90,.T.);
#210=EDGE_CURVE('',#164,#171,#91,.T.);
#211=EDGE_CURVE('',#171,#171,#145,.T.);
#212=EDGE_CURVE('',#172,#166,#92,.T.);
#213=EDGE_CURVE('',#170,#172,#93,.T.);
#214=EDGE_CURVE('',#162,#173,#94,.T.);
#215=EDGE_CURVE('',#173,#167,#95,.T.);
#216=EDGE_CURVE('',#169,#174,#96,.T.);
#217=EDGE_CURVE('',#174,#172,#97,.T.);
#218=EDGE_CURVE('',#175,#173,#98,.T.);
#219=EDGE_CURVE('',#175,#168,#99,.T.);
#220=EDGE_CURVE('',#174,#175,#100,.T.);
#221=ORIENTED_EDGE('',*,*,#176,.F.);
#222=ORIENTED_EDGE('',*,*,#177,.F.);
#223=ORIENTED_EDGE('',*,*,#178,.T.);
#224=ORIENTED_EDGE('',*,*,#179,.F.);
#225=ORIENTED_EDGE('',*,*,#180,.F.);
#226=ORIENTED_EDGE('',*,*,#181,.F.);
#227=ORIENTED_EDGE('',*,*,#182,.T.);
#228=ORIENTED_EDGE('',*,*,#183,.F.);
#229=ORIENTED_EDGE('',*,*,#184,.F.);
#230=ORIENTED_EDGE('',*,*,#178,.F.);
#231=ORIENTED_EDGE('',*,*,#185,.F.);
#232=ORIENTED_EDGE('',*,*,#182,.F.);
#233=ORIENTED_EDGE('',*,*,#186,.F.);
#234=ORIENTED_EDGE('',*,*,#187,.F.);
#235=ORIENTED_EDGE('',*,*,#188,.T.);
#236=ORIENTED_EDGE('',*,*,#189,.F.);
#237=ORIENTED_EDGE('',*,*,#190,.F.);
#238=ORIENTED_EDGE('',*,*,#191,.F.);
#239=ORIENTED_EDGE('',*,*,#192,.T.);
#240=ORIENTED_EDGE('',*,*,#193,.F.);
#241=ORIENTED_EDGE('',*,*,#194,.F.);
#242=ORIENTED_EDGE('',*,*,#188,.F.);
#243=ORIENTED_EDGE('',*,*,#195,.F.);
#244=ORIENTED_EDGE('',*,*,#192,.F.);
#245=ORIENTED_EDGE('',*,*,#186,.T.);
#246=ORIENTED_EDGE('',*,*,#196,.T.);
#247=ORIENTED_EDGE('',*,*,#197,.F.);
#248=ORIENTED_EDGE('',*,*,#198,.T.);
#249=ORIENTED_EDGE('',*,*,#180,.T.);
#250=ORIENTED_EDGE('',*,*,#199,.T.);
#251=ORIENTED_EDGE('',*,*,#190,.T.);
#252=ORIENTED_EDGE('',*,*,#200,.T.);
#253=ORIENTED_EDGE('',*,*,#201,.T.);
#254=ORIENTED_EDGE('',*,*,#176,.T.);
#255=ORIENTED_EDGE('',*,*,#202,.T.);
#256=ORIENTED_EDGE('',*,*,#203,.F.);
#257=ORIENTED_EDGE('',*,*,#204,.T.);
#258=ORIENTED_EDGE('',*,*,#179,.T.);
#259=ORIENTED_EDGE('',*,*,#184,.T.);
#260=ORIENTED_EDGE('',*,*,#181,.T.);
#261=ORIENTED_EDGE('',*,*,#200,.F.);
#262=ORIENTED_EDGE('',*,*,#193,.T.);
#263=ORIENTED_EDGE('',*,*,#195,.T.);
#264=ORIENTED_EDGE('',*,*,#187,.T.);
#265=ORIENTED_EDGE('',*,*,#198,.F.);
#266=ORIENTED_EDGE('',*,*,#205,.F.);
#267=ORIENTED_EDGE('',*,*,#206,.F.);
#268=ORIENTED_EDGE('',*,*,#207,.T.);
#269=ORIENTED_EDGE('',*,*,#208,.T.);
#270=ORIENTED_EDGE('',*,*,#209,.F.);
#271=ORIENTED_EDGE('',*,*,#202,.F.);
#272=ORIENTED_EDGE('',*,*,#201,.F.);
#273=ORIENTED_EDGE('',*,*,#210,.T.);
#274=ORIENTED_EDGE('',*,*,#211,.T.);
#275=ORIENTED_EDGE('',*,*,#210,.F.);
#276=ORIENTED_EDGE('',*,*,#211,.F.);
#277=ORIENTED_EDGE('',*,*,#212,.T.);
#278=ORIENTED_EDGE('',*,*,#203,.T.);
#279=ORIENTED_EDGE('',*,*,#209,.T.);
#280=ORIENTED_EDGE('',*,*,#213,.T.);
#281=ORIENTED_EDGE('',*,*,#205,.T.);
#282=ORIENTED_EDGE('',*,*,#197,.T.);
#283=ORIENTED_EDGE('',*,*,#214,.T.);
#284=ORIENTED_EDGE('',*,*,#215,.T.);
#285=ORIENTED_EDGE('',*,*,#213,.F.);
#286=ORIENTED_EDGE('',*,*,#208,.F.);
#287=ORIENTED_EDGE('',*,*,#216,.T.);
#288=ORIENTED_EDGE('',*,*,#217,.T.);
#289=ORIENTED_EDGE('',*,*,#215,.F.);
#290=ORIENTED_EDGE('',*,*,#218,.F.);
#291=ORIENTED_EDGE('',*,*,#219,.T.);
#292=ORIENTED_EDGE('',*,*,#206,.T.);
#293=ORIENTED_EDGE('',*,*,#177,.T.);
#294=ORIENTED_EDGE('',*,*,#204,.F.);
#295=ORIENTED_EDGE('',*,*,#212,.F.);
#296=ORIENTED_EDGE('',*,*,#217,.F.);
#297=ORIENTED_EDGE('',*,*,#220,.T.);
#298=ORIENTED_EDGE('',*,*,#218,.T.);
#299=ORIENTED_EDGE('',*,*,#214,.F.);
#300=ORIENTED_EDGE('',*,*,#196,.F.);
#301=ORIENTED_EDGE('',*,*,#189,.T.);
#302=ORIENTED_EDGE('',*,*,#194,.T.);
#303=ORIENTED_EDGE('',*,*,#191,.T.);
#304=ORIENTED_EDGE('',*,*,#199,.F.);
#305=ORIENTED_EDGE('',*,*,#183,.T.);
#306=ORIENTED_EDGE('',*,*,#185,.T.);
#307=ORIENTED_EDGE('',*,*,#220,.F.);
#308=ORIENTED_EDGE('',*,*,#216,.F.);
#309=ORIENTED_EDGE('',*,*,#207,.F.);
#310=ORIENTED_EDGE('',*,*,#219,.F.);
#311=CYLINDRICAL_SURFACE('',#348,1151.5999999999);
#312=CYLINDRICAL_SURFACE('',#351,1148.4);
#313=CYLINDRICAL_SURFACE('',#355,1151.5999999999);
#314=CYLINDRICAL_SURFACE('',#358,1148.4);
#315=CYLINDRICAL_SURFACE('',#367,32.5);
#316=ADVANCED_FACE('',(#29),#311,.F.);
#317=ADVANCED_FACE('',(#30),#312,.T.);
#318=ADVANCED_FACE('',(#31),#16,.T.);
#319=ADVANCED_FACE('',(#32),#313,.F.);
#320=ADVANCED_FACE('',(#33),#314,.T.);
#321=ADVANCED_FACE('',(#34),#17,.T.);
#322=ADVANCED_FACE('',(#35),#18,.T.);
#323=ADVANCED_FACE('',(#36,#15),#19,.T.);
#324=ADVANCED_FACE('',(#37),#20,.T.);
#325=ADVANCED_FACE('',(#38),#21,.T.);
#326=ADVANCED_FACE('',(#39),#315,.F.);
#327=ADVANCED_FACE('',(#40),#22,.T.);
#328=ADVANCED_FACE('',(#41),#23,.T.);
#329=ADVANCED_FACE('',(#42),#24,.T.);
#330=ADVANCED_FACE('',(#43),#25,.T.);
#331=ADVANCED_FACE('',(#44),#26,.T.);
#332=ADVANCED_FACE('',(#45),#27,.T.);
#333=ADVANCED_FACE('',(#46),#28,.T.);
#334=CLOSED_SHELL('',(#316,#317,#318,#319,#320,#321,#322,#323,#324,#325,
#326,#327,#328,#329,#330,#331,#332,#333));
#335=DERIVED_UNIT_ELEMENT(#337,1.);
#336=DERIVED_UNIT_ELEMENT(#568,-3.);
#337=(
MASS_UNIT()
NAMED_UNIT(*)
SI_UNIT(.KILO.,.GRAM.)
);
#338=DERIVED_UNIT((#335,#336));
#339=MEASURE_REPRESENTATION_ITEM('density measure',
POSITIVE_RATIO_MEASURE(7850.),#338);
#340=PROPERTY_DEFINITION_REPRESENTATION(#345,#342);
#341=PROPERTY_DEFINITION_REPRESENTATION(#346,#343);
#342=REPRESENTATION('material name',(#344),#565);
#343=REPRESENTATION('density',(#339),#565);
#344=DESCRIPTIVE_REPRESENTATION_ITEM('Acier','Acier');
#345=PROPERTY_DEFINITION('material property','material name',#575);
#346=PROPERTY_DEFINITION('material property','density of part',#575);
#347=AXIS2_PLACEMENT_3D('placement',#469,#376,#377);
#348=AXIS2_PLACEMENT_3D('',#470,#378,#379);
#349=AXIS2_PLACEMENT_3D('',#473,#380,#381);
#350=AXIS2_PLACEMENT_3D('',#477,#383,#384);
#351=AXIS2_PLACEMENT_3D('',#479,#386,#387);
#352=AXIS2_PLACEMENT_3D('',#482,#388,#389);
#353=AXIS2_PLACEMENT_3D('',#486,#391,#392);
#354=AXIS2_PLACEMENT_3D('',#488,#394,#395);
#355=AXIS2_PLACEMENT_3D('',#491,#398,#399);
#356=AXIS2_PLACEMENT_3D('',#494,#400,#401);
#357=AXIS2_PLACEMENT_3D('',#498,#403,#404);
#358=AXIS2_PLACEMENT_3D('',#500,#406,#407);
#359=AXIS2_PLACEMENT_3D('',#503,#408,#409);
#360=AXIS2_PLACEMENT_3D('',#507,#411,#412);
#361=AXIS2_PLACEMENT_3D('',#509,#414,#415);
#362=AXIS2_PLACEMENT_3D('',#512,#418,#419);
#363=AXIS2_PLACEMENT_3D('',#518,#423,#424);
#364=AXIS2_PLACEMENT_3D('',#522,#427,#428);
#365=AXIS2_PLACEMENT_3D('',#523,#429,#430);
#366=AXIS2_PLACEMENT_3D('',#529,#434,#435);
#367=AXIS2_PLACEMENT_3D('',#539,#441,#442);
#368=AXIS2_PLACEMENT_3D('',#542,#444,#445);
#369=AXIS2_PLACEMENT_3D('',#543,#446,#447);
#370=AXIS2_PLACEMENT_3D('',#544,#448,#449);
#371=AXIS2_PLACEMENT_3D('',#548,#452,#453);
#372=AXIS2_PLACEMENT_3D('',#552,#456,#457);
#373=AXIS2_PLACEMENT_3D('',#556,#460,#461);
#374=AXIS2_PLACEMENT_3D('',#560,#464,#465);
#375=AXIS2_PLACEMENT_3D('',#562,#467,#468);
#376=DIRECTION('axis',(0.,0.,1.));
#377=DIRECTION('refdir',(1.,0.,0.));
#378=DIRECTION('center_axis',(0.,1.,0.));
#379=DIRECTION('ref_axis',(0.999394901924443,0.,-0.034782610704685));
#380=DIRECTION('center_axis',(0.,1.,0.));
#381=DIRECTION('ref_axis',(0.999394901924443,0.,-0.034782610704685));
#382=DIRECTION('',(0.,-1.,0.));
#383=DIRECTION('center_axis',(0.,1.,0.));
#384=DIRECTION('ref_axis',(0.999394901924443,0.,-0.034782610704685));
#385=DIRECTION('',(0.,1.,0.));
#386=DIRECTION('center_axis',(0.,1.,0.));
#387=DIRECTION('ref_axis',(0.99939307480606,0.,-0.0348350689634468));
#388=DIRECTION('center_axis',(0.,-1.,0.));
#389=DIRECTION('ref_axis',(0.99939307480606,0.,-0.0348350689634468));
#390=DIRECTION('',(0.,-1.,0.));
#391=DIRECTION('center_axis',(0.,-1.,0.));
#392=DIRECTION('ref_axis',(0.99939307480606,0.,-0.0348350689634468));
#393=DIRECTION('',(0.,1.,0.));
#394=DIRECTION('center_axis',(0.,-1.,0.));
#395=DIRECTION('ref_axis',(1.,0.,0.));
#396=DIRECTION('',(-1.,0.,0.));
#397=DIRECTION('',(1.,0.,0.));
#398=DIRECTION('center_axis',(0.,1.,0.));
#399=DIRECTION('ref_axis',(-0.999394901924443,0.,0.0347826107046852));
#400=DIRECTION('center_axis',(0.,1.,0.));
#401=DIRECTION('ref_axis',(-0.999394901924443,0.,0.0347826107046852));
#402=DIRECTION('',(0.,-1.,0.));
#403=DIRECTION('center_axis',(0.,1.,0.));
#404=DIRECTION('ref_axis',(-0.999394901924443,0.,0.0347826107046852));
#405=DIRECTION('',(0.,1.,0.));
#406=DIRECTION('center_axis',(0.,1.,0.));
#407=DIRECTION('ref_axis',(-0.99939307480606,0.,0.0348350689634469));
#408=DIRECTION('center_axis',(0.,-1.,0.));
#409=DIRECTION('ref_axis',(-0.99939307480606,0.,0.0348350689634469));
#410=DIRECTION('',(0.,-1.,0.));
#411=DIRECTION('center_axis',(0.,-1.,0.));
#412=DIRECTION('ref_axis',(-0.99939307480606,0.,0.0348350689634469));
#413=DIRECTION('',(0.,1.,0.));
#414=DIRECTION('center_axis',(0.,-1.,0.));
#415=DIRECTION('ref_axis',(1.,0.,0.));
#416=DIRECTION('',(1.,0.,0.));
#417=DIRECTION('',(-1.,0.,0.));
#418=DIRECTION('center_axis',(0.,-1.,0.));
#419=DIRECTION('ref_axis',(0.,0.,-1.));
#420=DIRECTION('',(-1.,0.,0.));
#421=DIRECTION('',(0.,0.,1.));
#422=DIRECTION('',(1.,0.,0.));
#423=DIRECTION('center_axis',(0.,-1.,0.));
#424=DIRECTION('ref_axis',(0.,0.,-1.));
#425=DIRECTION('',(-1.,0.,0.));
#426=DIRECTION('',(1.,0.,0.));
#427=DIRECTION('center_axis',(0.,1.,0.));
#428=DIRECTION('ref_axis',(1.,0.,0.));
#429=DIRECTION('center_axis',(0.,-1.,0.));
#430=DIRECTION('ref_axis',(0.,0.,-1.));
#431=DIRECTION('',(1.,0.,0.));
#432=DIRECTION('',(0.,0.,-1.));
#433=DIRECTION('',(-1.,0.,0.));
#434=DIRECTION('center_axis',(0.,0.,-1.));
#435=DIRECTION('ref_axis',(1.,0.,0.));
#436=DIRECTION('',(0.707106781186548,-0.707106781186548,0.));
#437=DIRECTION('',(0.,-1.,0.));
#438=DIRECTION('',(1.,0.,0.));
#439=DIRECTION('',(0.,-1.,0.));
#440=DIRECTION('',(0.707106781186547,0.707106781186548,0.));
#441=DIRECTION('center_axis',(0.,1.,0.));
#442=DIRECTION('ref_axis',(1.,0.,0.));
#443=DIRECTION('',(0.,1.,0.));
#444=DIRECTION('center_axis',(0.,1.,0.));
#445=DIRECTION('ref_axis',(1.,0.,0.));
#446=DIRECTION('center_axis',(0.,-1.,0.));
#447=DIRECTION('ref_axis',(1.,0.,0.));
#448=DIRECTION('center_axis',(0.707106781186548,-0.707106781186547,0.));
#449=DIRECTION('ref_axis',(0.,0.,-1.));
#450=DIRECTION('',(-0.707106781186547,-0.707106781186548,0.));
#451=DIRECTION('',(0.,0.,1.));
#452=DIRECTION('center_axis',(-0.707106781186548,-0.707106781186548,0.));
#453=DIRECTION('ref_axis',(0.,0.,1.));
#454=DIRECTION('',(-0.707106781186548,0.707106781186548,0.));
#455=DIRECTION('',(0.,0.,-1.));
#456=DIRECTION('center_axis',(1.,0.,0.));
#457=DIRECTION('ref_axis',(0.,0.,1.));
#458=DIRECTION('',(0.,0.,1.));
#459=DIRECTION('',(0.,-1.,0.));
#460=DIRECTION('center_axis',(-1.,0.,0.));
#461=DIRECTION('ref_axis',(0.,0.,-1.));
#462=DIRECTION('',(0.,-1.,0.));
#463=DIRECTION('',(0.,0.,-1.));
#464=DIRECTION('center_axis',(0.,0.,1.));
#465=DIRECTION('ref_axis',(-1.,0.,0.));
#466=DIRECTION('',(-1.,0.,0.));
#467=DIRECTION('center_axis',(0.,1.,0.));
#468=DIRECTION('ref_axis',(1.,0.,0.));
#469=CARTESIAN_POINT('',(0.,0.,0.));
#470=CARTESIAN_POINT('Origin',(-1049.50413729352,-18.,35.0000000000054));
#471=CARTESIAN_POINT('',(101.563871122913,-18.,70.));
#472=CARTESIAN_POINT('',(101.563871122912,-18.,0.));
#473=CARTESIAN_POINT('Origin',(-1049.50413729352,-18.,35.0000000000054));
#474=CARTESIAN_POINT('',(101.563871122913,-8.,70.));
#475=CARTESIAN_POINT('',(101.563871122913,-18.,70.));
#476=CARTESIAN_POINT('',(101.563871122912,-8.,0.));
#477=CARTESIAN_POINT('Origin',(-1049.50413729352,-8.,35.0000000000054));
#478=CARTESIAN_POINT('',(101.563871122912,-18.,0.));
#479=CARTESIAN_POINT('Origin',(-1049.50300710728,-18.,35.0045931976229));
#480=CARTESIAN_POINT('',(98.3633781724133,-18.,-2.22044604925031E-15));
#481=CARTESIAN_POINT('',(98.3636582780061,-18.,70.));
#482=CARTESIAN_POINT('Origin',(-1049.50300710728,-18.,35.0045931976229));
#483=CARTESIAN_POINT('',(98.3633781724133,-8.,-2.22044604925031E-15));
#484=CARTESIAN_POINT('',(98.3633781724133,-18.,0.));
#485=CARTESIAN_POINT('',(98.3636582780061,-8.,70.));
#486=CARTESIAN_POINT('Origin',(-1049.50300710728,-8.,35.0045931976229));
#487=CARTESIAN_POINT('',(98.3636582780062,-18.,70.));
#488=CARTESIAN_POINT('Origin',(100.229620439397,-8.,35.));
#489=CARTESIAN_POINT('',(50.1148102196986,-8.,0.));
#490=CARTESIAN_POINT('',(110.114810219699,-8.,70.));
#491=CARTESIAN_POINT('Origin',(1169.50413729352,-18.,34.9999999999945));
#492=CARTESIAN_POINT('',(18.4361288770874,-18.,0.));
#493=CARTESIAN_POINT('',(18.4361288770876,-18.,70.));
#494=CARTESIAN_POINT('Origin',(1169.50413729352,-18.,34.9999999999945));
#495=CARTESIAN_POINT('',(18.4361288770874,-8.,0.));
#496=CARTESIAN_POINT('',(18.4361288770873,-18.,0.));
#497=CARTESIAN_POINT('',(18.4361288770876,-8.,70.));
#498=CARTESIAN_POINT('Origin',(1169.50413729352,-8.,34.9999999999945));
#499=CARTESIAN_POINT('',(18.4361288770876,-18.,70.));
#500=CARTESIAN_POINT('Origin',(1169.50300710728,-18.,34.9954068023769));
#501=CARTESIAN_POINT('',(21.6366218275867,-18.,70.));
#502=CARTESIAN_POINT('',(21.6363417219939,-18.,0.));
#503=CARTESIAN_POINT('Origin',(1169.50300710728,-18.,34.9954068023769));
#504=CARTESIAN_POINT('',(21.6366218275867,-8.,70.));
#505=CARTESIAN_POINT('',(21.6366218275867,-18.,70.));
#506=CARTESIAN_POINT('',(21.6363417219939,-8.,0.));
#507=CARTESIAN_POINT('Origin',(1169.50300710728,-8.,34.9954068023769));
#508=CARTESIAN_POINT('',(21.6363417219938,-18.,0.));
#509=CARTESIAN_POINT('Origin',(19.7703795606028,-8.,35.));
#510=CARTESIAN_POINT('',(69.8851897803014,-8.,70.));
#511=CARTESIAN_POINT('',(9.88518978030139,-8.,0.));
#512=CARTESIAN_POINT('Origin',(60.,-18.,35.));
#513=CARTESIAN_POINT('',(17.,-18.,70.));
#514=CARTESIAN_POINT('',(120.,-18.,70.));
#515=CARTESIAN_POINT('',(17.,-18.,0.));
#516=CARTESIAN_POINT('',(17.,-18.,52.5));
#517=CARTESIAN_POINT('',(0.,-18.,0.));
#518=CARTESIAN_POINT('Origin',(60.,-18.,35.));
#519=CARTESIAN_POINT('',(120.,-18.,70.));
#520=CARTESIAN_POINT('',(0.,-18.,0.));
#521=CARTESIAN_POINT('',(27.5,-18.,35.));
#522=CARTESIAN_POINT('Origin',(60.,-18.,35.));
#523=CARTESIAN_POINT('Origin',(60.,-18.,35.));
#524=CARTESIAN_POINT('',(103.,-18.,0.));
#525=CARTESIAN_POINT('',(0.,-18.,0.));
#526=CARTESIAN_POINT('',(103.,-18.,70.));
#527=CARTESIAN_POINT('',(103.,-18.,17.5));
#528=CARTESIAN_POINT('',(120.,-18.,70.));
#529=CARTESIAN_POINT('Origin',(0.,0.,0.));
#530=CARTESIAN_POINT('',(0.,-0.999999999999999,0.));
#531=CARTESIAN_POINT('',(4.,-5.,0.));
#532=CARTESIAN_POINT('',(0.,0.,0.));
#533=CARTESIAN_POINT('',(0.,0.,0.));
#534=CARTESIAN_POINT('',(120.,0.,0.));
#535=CARTESIAN_POINT('',(0.,0.,0.));
#536=CARTESIAN_POINT('',(120.,-0.999999999999999,0.));
#537=CARTESIAN_POINT('',(120.,0.,0.));
#538=CARTESIAN_POINT('',(86.,-35.,0.));
#539=CARTESIAN_POINT('Origin',(60.,-18.,35.));
#540=CARTESIAN_POINT('',(27.5,-17.,35.));
#541=CARTESIAN_POINT('',(27.5,-18.,35.));
#542=CARTESIAN_POINT('Origin',(60.,-17.,35.));
#543=CARTESIAN_POINT('Origin',(60.,-17.,35.));
#544=CARTESIAN_POINT('Origin',(111.5,-9.5,17.5));
#545=CARTESIAN_POINT('',(120.,-0.999999999999999,70.));
#546=CARTESIAN_POINT('',(116.,-5.,70.));
#547=CARTESIAN_POINT('',(120.,-0.999999999999999,17.5));
#548=CARTESIAN_POINT('Origin',(8.5,-9.5,52.5));
#549=CARTESIAN_POINT('',(0.,-0.999999999999999,70.));
#550=CARTESIAN_POINT('',(34.,-35.,70.));
#551=CARTESIAN_POINT('',(0.,-0.999999999999999,52.5));
#552=CARTESIAN_POINT('Origin',(120.,0.,0.));
#553=CARTESIAN_POINT('',(120.,0.,70.));
#554=CARTESIAN_POINT('',(120.,0.,0.));
#555=CARTESIAN_POINT('',(120.,0.,70.));
#556=CARTESIAN_POINT('Origin',(0.,0.,70.));
#557=CARTESIAN_POINT('',(0.,0.,70.));
#558=CARTESIAN_POINT('',(0.,0.,70.));
#559=CARTESIAN_POINT('',(0.,0.,70.));
#560=CARTESIAN_POINT('Origin',(120.,0.,70.));
#561=CARTESIAN_POINT('',(120.,0.,70.));
#562=CARTESIAN_POINT('Origin',(60.,0.,35.));
#563=UNCERTAINTY_MEASURE_WITH_UNIT(LENGTH_MEASURE(0.01),#567,
'DISTANCE_ACCURACY_VALUE',
'Maximum model space distance between geometric entities at asserted c
onnectivities');
#564=UNCERTAINTY_MEASURE_WITH_UNIT(LENGTH_MEASURE(0.01),#567,
'DISTANCE_ACCURACY_VALUE',
'Maximum model space distance between geometric entities at asserted c
onnectivities');
#565=(
GEOMETRIC_REPRESENTATION_CONTEXT(3)
GLOBAL_UNCERTAINTY_ASSIGNED_CONTEXT((#563))
GLOBAL_UNIT_ASSIGNED_CONTEXT((#567,#569,#570))
REPRESENTATION_CONTEXT('','3D')
);
#566=(
GEOMETRIC_REPRESENTATION_CONTEXT(3)
GLOBAL_UNCERTAINTY_ASSIGNED_CONTEXT((#564))
GLOBAL_UNIT_ASSIGNED_CONTEXT((#567,#569,#570))
REPRESENTATION_CONTEXT('','3D')
);
#567=(
LENGTH_UNIT()
NAMED_UNIT(*)
SI_UNIT(.MILLI.,.METRE.)
);
#568=(
LENGTH_UNIT()
NAMED_UNIT(*)
SI_UNIT($,.METRE.)
);
#569=(
NAMED_UNIT(*)
PLANE_ANGLE_UNIT()
SI_UNIT($,.RADIAN.)
);
#570=(
NAMED_UNIT(*)
SI_UNIT($,.STERADIAN.)
SOLID_ANGLE_UNIT()
);
#571=SHAPE_DEFINITION_REPRESENTATION(#572,#573);
#572=PRODUCT_DEFINITION_SHAPE('',$,#575);
#573=SHAPE_REPRESENTATION('',(#347),#565);
#574=PRODUCT_DEFINITION_CONTEXT('part definition',#579,'design');
#575=PRODUCT_DEFINITION('Usinage Mirastar 4mm',
'Usinage Mirastar 4mm v11',#576,#574);
#576=PRODUCT_DEFINITION_FORMATION('',$,#581);
#577=PRODUCT_RELATED_PRODUCT_CATEGORY('Usinage Mirastar 4mm v11',
'Usinage Mirastar 4mm v11',(#581));
#578=APPLICATION_PROTOCOL_DEFINITION('international standard',
'automotive_design',2009,#579);
#579=APPLICATION_CONTEXT(
'Core Data for Automotive Mechanical Design Process');
#580=PRODUCT_CONTEXT('part definition',#579,'mechanical');
#581=PRODUCT('Usinage Mirastar 4mm','Usinage Mirastar 4mm v11',$,(#580));
#582=PRESENTATION_STYLE_ASSIGNMENT((#583));
#583=SURFACE_STYLE_USAGE(.BOTH.,#584);
#584=SURFACE_SIDE_STYLE('',(#585));
#585=SURFACE_STYLE_FILL_AREA(#586);
#586=FILL_AREA_STYLE('Acier - Satin\X\E9',(#587));
#587=FILL_AREA_STYLE_COLOUR('Acier - Satin\X\E9',#588);
#588=COLOUR_RGB('Acier - Satin\X\E9',0.627450980392157,0.627450980392157,
0.627450980392157);
ENDSEC;
END-ISO-10303-21;
