ISO-10303-21;
HEADER;
/* Generated by software containing ST-Developer
 * from STEP Tools, Inc. (www.steptools.com) 
 */

FILE_DESCRIPTION(
/* description */ (''),
/* implementation_level */ '2;1');

FILE_NAME(
/* name */ 'Pige controle 12mm.stp',
/* time_stamp */ '2022-11-21T11:18:22+01:00',
/* author */ ('ethomas'),
/* organization */ (''),
/* preprocessor_version */ 'ST-DEVELOPER v19.2',
/* originating_system */ 'Autodesk Inventor 2023',
/* authorisation */ '');

FILE_SCHEMA (('AUTOMOTIVE_DESIGN { 1 0 10303 214 3 1 1 }'));
ENDSEC;

DATA;
#10=MECHANICAL_DESIGN_GEOMETRIC_PRESENTATION_REPRESENTATION('',(#13),#301);
#11=SHAPE_REPRESENTATION_RELATIONSHIP('SRR','None',#308,#12);
#12=ADVANCED_BREP_SHAPE_REPRESENTATION('',(#14),#300);
#13=STYLED_ITEM('',(#317),#14);
#14=MANIFOLD_SOLID_BREP('Solide1',#126);
#15=PLANE('',#157);
#16=PLANE('',#160);
#17=FACE_BOUND('',#35,.T.);
#18=CIRCLE('',#151,6.);
#19=CIRCLE('',#152,6.);
#20=CIRCLE('',#153,4.);
#21=CIRCLE('',#155,6.);
#22=CIRCLE('',#156,6.);
#23=CIRCLE('',#159,4.);
#24=CONICAL_SURFACE('',#150,5.,0.785398163397448);
#25=CONICAL_SURFACE('',#158,5.,0.785398163397448);
#26=FACE_OUTER_BOUND('',#32,.T.);
#27=FACE_OUTER_BOUND('',#33,.T.);
#28=FACE_OUTER_BOUND('',#34,.T.);
#29=FACE_OUTER_BOUND('',#36,.T.);
#30=FACE_OUTER_BOUND('',#37,.T.);
#31=FACE_OUTER_BOUND('',#38,.T.);
#32=EDGE_LOOP('',(#84,#85,#86,#87,#88,#89,#90,#91));
#33=EDGE_LOOP('',(#92,#93,#94,#95,#96));
#34=EDGE_LOOP('',(#97,#98,#99,#100,#101,#102,#103,#104,#105,#106,#107,#108));
#35=EDGE_LOOP('',(#109,#110));
#36=EDGE_LOOP('',(#111));
#37=EDGE_LOOP('',(#112,#113,#114,#115,#116));
#38=EDGE_LOOP('',(#117));
#39=LINE('',#233,#44);
#40=LINE('',#283,#45);
#41=LINE('',#290,#46);
#42=LINE('',#291,#47);
#43=LINE('',#296,#48);
#44=VECTOR('',#165,2.);
#45=VECTOR('',#172,5.);
#46=VECTOR('',#181,6.);
#47=VECTOR('',#182,6.);
#48=VECTOR('',#189,5.);
#49=B_SPLINE_CURVE_WITH_KNOTS('',3,(#196,#197,#198,#199,#200,#201,#202,
#203,#204,#205,#206,#207,#208,#209,#210,#211,#212,#213),.UNSPECIFIED.,.F.,
 .F.,(4,2,2,2,2,2,2,2,4),(0.,0.0759876362447372,0.151975272489474,0.227927665609885,
0.303880058730296,0.379832451850707,0.455784844971118,0.531772481215855,
0.607760117460592),.UNSPECIFIED.);
#50=B_SPLINE_CURVE_WITH_KNOTS('',3,(#214,#215,#216,#217,#218,#219,#220,
#221,#222,#223,#224,#225,#226,#227,#228,#229,#230,#231),.UNSPECIFIED.,.F.,
 .F.,(4,2,2,2,2,2,2,2,4),(0.607760117460592,0.683747753705329,0.759735389950067,
0.835687783070477,0.911640176190888,0.987592569311299,1.06354496243171,
1.13953259867645,1.21552023492118),.UNSPECIFIED.);
#51=B_SPLINE_CURVE_WITH_KNOTS('',3,(#235,#236,#237,#238,#239,#240,#241,
#242,#243,#244),.UNSPECIFIED.,.F.,.F.,(4,2,2,2,4),(0.303880058730296,0.379832451850707,
0.455784844971118,0.531772481215855,0.607760117460592),.UNSPECIFIED.);
#52=B_SPLINE_CURVE_WITH_KNOTS('',3,(#246,#247,#248,#249,#250,#251,#252,
#253,#254,#255),.UNSPECIFIED.,.F.,.F.,(4,2,2,2,4),(0.,0.0759876362447371,
0.151975272489474,0.227927665609885,0.303880058730296),.UNSPECIFIED.);
#53=B_SPLINE_CURVE_WITH_KNOTS('',3,(#257,#258,#259,#260,#261,#262,#263,
#264,#265,#266),.UNSPECIFIED.,.F.,.F.,(4,2,2,2,4),(0.911640176190889,0.9875925693113,
1.06354496243171,1.13953259867645,1.21552023492118),.UNSPECIFIED.);
#54=B_SPLINE_CURVE_WITH_KNOTS('',3,(#267,#268,#269,#270,#271,#272,#273,
#274,#275,#276),.UNSPECIFIED.,.F.,.F.,(4,2,2,2,4),(0.607760117460592,0.68374775370533,
0.759735389950067,0.835687783070478,0.911640176190889),.UNSPECIFIED.);
#55=VERTEX_POINT('',#194);
#56=VERTEX_POINT('',#195);
#57=VERTEX_POINT('',#232);
#58=VERTEX_POINT('',#234);
#59=VERTEX_POINT('',#245);
#60=VERTEX_POINT('',#256);
#61=VERTEX_POINT('',#278);
#62=VERTEX_POINT('',#279);
#63=VERTEX_POINT('',#282);
#64=VERTEX_POINT('',#286);
#65=VERTEX_POINT('',#287);
#66=VERTEX_POINT('',#294);
#67=EDGE_CURVE('',#55,#56,#49,.T.);
#68=EDGE_CURVE('',#56,#55,#50,.T.);
#69=EDGE_CURVE('',#56,#57,#39,.T.);
#70=EDGE_CURVE('',#58,#57,#51,.T.);
#71=EDGE_CURVE('',#59,#58,#52,.T.);
#72=EDGE_CURVE('',#60,#59,#53,.T.);
#73=EDGE_CURVE('',#57,#60,#54,.T.);
#74=EDGE_CURVE('',#61,#62,#18,.T.);
#75=EDGE_CURVE('',#62,#61,#19,.T.);
#76=EDGE_CURVE('',#61,#63,#40,.T.);
#77=EDGE_CURVE('',#63,#63,#20,.T.);
#78=EDGE_CURVE('',#64,#65,#21,.T.);
#79=EDGE_CURVE('',#65,#64,#22,.T.);
#80=EDGE_CURVE('',#65,#58,#41,.T.);
#81=EDGE_CURVE('',#60,#62,#42,.T.);
#82=EDGE_CURVE('',#66,#66,#23,.T.);
#83=EDGE_CURVE('',#66,#64,#43,.T.);
#84=ORIENTED_EDGE('',*,*,#67,.F.);
#85=ORIENTED_EDGE('',*,*,#68,.F.);
#86=ORIENTED_EDGE('',*,*,#69,.T.);
#87=ORIENTED_EDGE('',*,*,#70,.F.);
#88=ORIENTED_EDGE('',*,*,#71,.F.);
#89=ORIENTED_EDGE('',*,*,#72,.F.);
#90=ORIENTED_EDGE('',*,*,#73,.F.);
#91=ORIENTED_EDGE('',*,*,#69,.F.);
#92=ORIENTED_EDGE('',*,*,#74,.T.);
#93=ORIENTED_EDGE('',*,*,#75,.T.);
#94=ORIENTED_EDGE('',*,*,#76,.T.);
#95=ORIENTED_EDGE('',*,*,#77,.T.);
#96=ORIENTED_EDGE('',*,*,#76,.F.);
#97=ORIENTED_EDGE('',*,*,#78,.F.);
#98=ORIENTED_EDGE('',*,*,#79,.F.);
#99=ORIENTED_EDGE('',*,*,#80,.T.);
#100=ORIENTED_EDGE('',*,*,#70,.T.);
#101=ORIENTED_EDGE('',*,*,#73,.T.);
#102=ORIENTED_EDGE('',*,*,#81,.T.);
#103=ORIENTED_EDGE('',*,*,#74,.F.);
#104=ORIENTED_EDGE('',*,*,#75,.F.);
#105=ORIENTED_EDGE('',*,*,#81,.F.);
#106=ORIENTED_EDGE('',*,*,#72,.T.);
#107=ORIENTED_EDGE('',*,*,#71,.T.);
#108=ORIENTED_EDGE('',*,*,#80,.F.);
#109=ORIENTED_EDGE('',*,*,#67,.T.);
#110=ORIENTED_EDGE('',*,*,#68,.T.);
#111=ORIENTED_EDGE('',*,*,#77,.F.);
#112=ORIENTED_EDGE('',*,*,#82,.T.);
#113=ORIENTED_EDGE('',*,*,#83,.T.);
#114=ORIENTED_EDGE('',*,*,#78,.T.);
#115=ORIENTED_EDGE('',*,*,#79,.T.);
#116=ORIENTED_EDGE('',*,*,#83,.F.);
#117=ORIENTED_EDGE('',*,*,#82,.F.);
#118=CYLINDRICAL_SURFACE('',#149,2.);
#119=CYLINDRICAL_SURFACE('',#154,6.);
#120=ADVANCED_FACE('',(#26),#118,.F.);
#121=ADVANCED_FACE('',(#27),#24,.T.);
#122=ADVANCED_FACE('',(#28,#17),#119,.T.);
#123=ADVANCED_FACE('',(#29),#15,.F.);
#124=ADVANCED_FACE('',(#30),#25,.T.);
#125=ADVANCED_FACE('',(#31),#16,.T.);
#126=CLOSED_SHELL('',(#120,#121,#122,#123,#124,#125));
#127=DERIVED_UNIT_ELEMENT(#130,1.);
#128=DERIVED_UNIT_ELEMENT(#303,-3.);
#129=DIMENSIONAL_EXPONENTS(0.,1.,0.,0.,0.,0.,0.);
#130=(
CONVERSION_BASED_UNIT('gram',#132)
MASS_UNIT()
NAMED_UNIT(#129)
);
#131=(
MASS_UNIT()
NAMED_UNIT(*)
SI_UNIT(.KILO.,.GRAM.)
);
#132=MASS_MEASURE_WITH_UNIT(MASS_MEASURE(0.001),#131);
#133=DERIVED_UNIT((#127,#128));
#134=MEASURE_REPRESENTATION_ITEM('density measure',
POSITIVE_RATIO_MEASURE(7.85),#133);
#135=PROPERTY_DEFINITION_REPRESENTATION(#140,#137);
#136=PROPERTY_DEFINITION_REPRESENTATION(#141,#138);
#137=REPRESENTATION('material name',(#139),#300);
#138=REPRESENTATION('density',(#134),#300);
#139=DESCRIPTIVE_REPRESENTATION_ITEM('Acier','Acier');
#140=PROPERTY_DEFINITION('material property','material name',#310);
#141=PROPERTY_DEFINITION('material property','density of part',#310);
#142=DATE_TIME_ROLE('creation_date');
#143=APPLIED_DATE_AND_TIME_ASSIGNMENT(#144,#142,(#310));
#144=DATE_AND_TIME(#145,#146);
#145=CALENDAR_DATE(2022,21,11);
#146=LOCAL_TIME(0,0,0.,#147);
#147=COORDINATED_UNIVERSAL_TIME_OFFSET(0,0,.BEHIND.);
#148=AXIS2_PLACEMENT_3D('placement',#192,#161,#162);
#149=AXIS2_PLACEMENT_3D('',#193,#163,#164);
#150=AXIS2_PLACEMENT_3D('',#277,#166,#167);
#151=AXIS2_PLACEMENT_3D('',#280,#168,#169);
#152=AXIS2_PLACEMENT_3D('',#281,#170,#171);
#153=AXIS2_PLACEMENT_3D('',#284,#173,#174);
#154=AXIS2_PLACEMENT_3D('',#285,#175,#176);
#155=AXIS2_PLACEMENT_3D('',#288,#177,#178);
#156=AXIS2_PLACEMENT_3D('',#289,#179,#180);
#157=AXIS2_PLACEMENT_3D('',#292,#183,#184);
#158=AXIS2_PLACEMENT_3D('',#293,#185,#186);
#159=AXIS2_PLACEMENT_3D('',#295,#187,#188);
#160=AXIS2_PLACEMENT_3D('',#297,#190,#191);
#161=DIRECTION('axis',(0.,0.,1.));
#162=DIRECTION('refdir',(1.,0.,0.));
#163=DIRECTION('center_axis',(1.,0.,0.));
#164=DIRECTION('ref_axis',(0.,1.,0.));
#165=DIRECTION('',(-1.,0.,0.));
#166=DIRECTION('center_axis',(0.,0.,1.));
#167=DIRECTION('ref_axis',(-1.,0.,0.));
#168=DIRECTION('center_axis',(0.,0.,-1.));
#169=DIRECTION('ref_axis',(-1.,0.,0.));
#170=DIRECTION('center_axis',(0.,0.,-1.));
#171=DIRECTION('ref_axis',(-1.,0.,0.));
#172=DIRECTION('',(-0.707106781186548,-8.65956056235493E-17,-0.707106781186548));
#173=DIRECTION('center_axis',(0.,0.,1.));
#174=DIRECTION('ref_axis',(-1.,0.,0.));
#175=DIRECTION('center_axis',(0.,0.,1.));
#176=DIRECTION('ref_axis',(1.,0.,0.));
#177=DIRECTION('center_axis',(0.,0.,1.));
#178=DIRECTION('ref_axis',(-1.,0.,0.));
#179=DIRECTION('center_axis',(0.,0.,1.));
#180=DIRECTION('ref_axis',(-1.,0.,0.));
#181=DIRECTION('',(0.,0.,-1.));
#182=DIRECTION('',(0.,0.,-1.));
#183=DIRECTION('center_axis',(0.,0.,1.));
#184=DIRECTION('ref_axis',(1.,0.,0.));
#185=DIRECTION('center_axis',(0.,0.,-1.));
#186=DIRECTION('ref_axis',(-1.,0.,0.));
#187=DIRECTION('center_axis',(0.,0.,-1.));
#188=DIRECTION('ref_axis',(-1.,0.,0.));
#189=DIRECTION('',(0.707106781186547,8.65956056235493E-17,-0.707106781186548));
#190=DIRECTION('center_axis',(0.,0.,1.));
#191=DIRECTION('ref_axis',(1.,0.,0.));
#192=CARTESIAN_POINT('',(0.,0.,0.));
#193=CARTESIAN_POINT('Origin',(-46.4830805543787,0.,50.));
#194=CARTESIAN_POINT('',(5.65685424949238,2.,50.));
#195=CARTESIAN_POINT('',(5.65685424949238,-2.,50.));
#196=CARTESIAN_POINT('Ctrl Pts',(5.65685424949238,2.,50.));
#197=CARTESIAN_POINT('Ctrl Pts',(5.65685424949238,2.,49.7467078791842));
#198=CARTESIAN_POINT('Ctrl Pts',(5.67565356574251,1.94898067853762,49.4779960530729));
#199=CARTESIAN_POINT('Ctrl Pts',(5.74186082552466,1.7443058152527,48.9858936400846));
#200=CARTESIAN_POINT('Ctrl Pts',(5.78813771212597,1.59074095999941,48.7623138352532));
#201=CARTESIAN_POINT('Ctrl Pts',(5.87374622031365,1.23776803829002,48.4093409135438));
#202=CARTESIAN_POINT('Ctrl Pts',(5.9188739106068,1.01415562391481,48.2557130277668));
#203=CARTESIAN_POINT('Ctrl Pts',(5.98240475886912,0.521932274441715,48.0509911583939));
#204=CARTESIAN_POINT('Ctrl Pts',(6.,0.253174643734703,48.));
#205=CARTESIAN_POINT('Ctrl Pts',(6.,-0.253174643734704,48.));
#206=CARTESIAN_POINT('Ctrl Pts',(5.98240475886912,-0.521932274441717,48.0509911583939));
#207=CARTESIAN_POINT('Ctrl Pts',(5.9188739106068,-1.01415562391481,48.2557130277668));
#208=CARTESIAN_POINT('Ctrl Pts',(5.87374622031365,-1.23776803829002,48.4093409135438));
#209=CARTESIAN_POINT('Ctrl Pts',(5.78813771212597,-1.59074095999941,48.7623138352532));
#210=CARTESIAN_POINT('Ctrl Pts',(5.74186082552466,-1.7443058152527,48.9858936400846));
#211=CARTESIAN_POINT('Ctrl Pts',(5.67565356574251,-1.94898067853762,49.4779960530729));
#212=CARTESIAN_POINT('Ctrl Pts',(5.65685424949238,-2.,49.7467078791842));
#213=CARTESIAN_POINT('Ctrl Pts',(5.65685424949238,-2.,50.));
#214=CARTESIAN_POINT('Ctrl Pts',(5.65685424949238,-2.,50.));
#215=CARTESIAN_POINT('Ctrl Pts',(5.65685424949238,-2.,50.2532921208158));
#216=CARTESIAN_POINT('Ctrl Pts',(5.67565356574251,-1.94898067853762,50.5220039469271));
#217=CARTESIAN_POINT('Ctrl Pts',(5.74186082552466,-1.7443058152527,51.0141063599154));
#218=CARTESIAN_POINT('Ctrl Pts',(5.78813771212597,-1.59074095999941,51.2376861647468));
#219=CARTESIAN_POINT('Ctrl Pts',(5.87374622031365,-1.23776803829002,51.5906590864562));
#220=CARTESIAN_POINT('Ctrl Pts',(5.9188739106068,-1.01415562391481,51.7442869722332));
#221=CARTESIAN_POINT('Ctrl Pts',(5.98240475886912,-0.521932274441716,51.9490088416061));
#222=CARTESIAN_POINT('Ctrl Pts',(6.,-0.253174643734703,52.));
#223=CARTESIAN_POINT('Ctrl Pts',(6.,0.253174643734704,52.));
#224=CARTESIAN_POINT('Ctrl Pts',(5.98240475886912,0.521932274441716,51.9490088416061));
#225=CARTESIAN_POINT('Ctrl Pts',(5.9188739106068,1.01415562391481,51.7442869722332));
#226=CARTESIAN_POINT('Ctrl Pts',(5.87374622031365,1.23776803829002,51.5906590864562));
#227=CARTESIAN_POINT('Ctrl Pts',(5.78813771212597,1.59074095999941,51.2376861647468));
#228=CARTESIAN_POINT('Ctrl Pts',(5.74186082552466,1.7443058152527,51.0141063599154));
#229=CARTESIAN_POINT('Ctrl Pts',(5.67565356574251,1.94898067853762,50.5220039469271));
#230=CARTESIAN_POINT('Ctrl Pts',(5.65685424949238,2.,50.2532921208158));
#231=CARTESIAN_POINT('Ctrl Pts',(5.65685424949238,2.,50.));
#232=CARTESIAN_POINT('',(-5.65685424949238,-2.,50.));
#233=CARTESIAN_POINT('',(-46.4830805543787,-2.,50.));
#234=CARTESIAN_POINT('',(-6.,-4.02088509263742E-16,52.));
#235=CARTESIAN_POINT('Ctrl Pts',(-6.,0.,52.));
#236=CARTESIAN_POINT('Ctrl Pts',(-6.,-0.253174643734703,52.));
#237=CARTESIAN_POINT('Ctrl Pts',(-5.98240475886912,-0.521932274441708,51.9490088416061));
#238=CARTESIAN_POINT('Ctrl Pts',(-5.9188739106068,-1.0141556239148,51.7442869722332));
#239=CARTESIAN_POINT('Ctrl Pts',(-5.87374622031365,-1.23776803829002,51.5906590864562));
#240=CARTESIAN_POINT('Ctrl Pts',(-5.78813771212597,-1.59074095999941,51.2376861647468));
#241=CARTESIAN_POINT('Ctrl Pts',(-5.74186082552466,-1.7443058152527,51.0141063599154));
#242=CARTESIAN_POINT('Ctrl Pts',(-5.67565356574251,-1.94898067853762,50.5220039469271));
#243=CARTESIAN_POINT('Ctrl Pts',(-5.65685424949238,-2.,50.2532921208158));
#244=CARTESIAN_POINT('Ctrl Pts',(-5.65685424949238,-2.,50.));
#245=CARTESIAN_POINT('',(-5.65685424949238,2.,50.));
#246=CARTESIAN_POINT('Ctrl Pts',(-5.65685424949238,2.,50.));
#247=CARTESIAN_POINT('Ctrl Pts',(-5.65685424949238,2.,50.2532921208158));
#248=CARTESIAN_POINT('Ctrl Pts',(-5.67565356574251,1.94898067853762,50.5220039469271));
#249=CARTESIAN_POINT('Ctrl Pts',(-5.74186082552466,1.7443058152527,51.0141063599154));
#250=CARTESIAN_POINT('Ctrl Pts',(-5.78813771212597,1.59074095999941,51.2376861647468));
#251=CARTESIAN_POINT('Ctrl Pts',(-5.87374622031365,1.23776803829002,51.5906590864562));
#252=CARTESIAN_POINT('Ctrl Pts',(-5.9188739106068,1.01415562391481,51.7442869722332));
#253=CARTESIAN_POINT('Ctrl Pts',(-5.98240475886912,0.521932274441717,51.9490088416061));
#254=CARTESIAN_POINT('Ctrl Pts',(-6.,0.253174643734703,52.));
#255=CARTESIAN_POINT('Ctrl Pts',(-6.,-6.93889390390723E-16,52.));
#256=CARTESIAN_POINT('',(-6.,-6.79644265420031E-16,48.));
#257=CARTESIAN_POINT('Ctrl Pts',(-6.,-9.0205620750794E-16,48.));
#258=CARTESIAN_POINT('Ctrl Pts',(-6.,0.253174643734702,48.));
#259=CARTESIAN_POINT('Ctrl Pts',(-5.98240475886912,0.521932274441715,48.0509911583939));
#260=CARTESIAN_POINT('Ctrl Pts',(-5.9188739106068,1.01415562391481,48.2557130277668));
#261=CARTESIAN_POINT('Ctrl Pts',(-5.87374622031365,1.23776803829002,48.4093409135438));
#262=CARTESIAN_POINT('Ctrl Pts',(-5.78813771212597,1.59074095999941,48.7623138352532));
#263=CARTESIAN_POINT('Ctrl Pts',(-5.74186082552466,1.7443058152527,48.9858936400846));
#264=CARTESIAN_POINT('Ctrl Pts',(-5.67565356574251,1.94898067853762,49.4779960530729));
#265=CARTESIAN_POINT('Ctrl Pts',(-5.65685424949238,2.,49.7467078791842));
#266=CARTESIAN_POINT('Ctrl Pts',(-5.65685424949238,2.,50.));
#267=CARTESIAN_POINT('Ctrl Pts',(-5.65685424949238,-2.,50.));
#268=CARTESIAN_POINT('Ctrl Pts',(-5.65685424949238,-2.,49.7467078791842));
#269=CARTESIAN_POINT('Ctrl Pts',(-5.67565356574251,-1.94898067853762,49.4779960530729));
#270=CARTESIAN_POINT('Ctrl Pts',(-5.74186082552466,-1.7443058152527,48.9858936400846));
#271=CARTESIAN_POINT('Ctrl Pts',(-5.78813771212597,-1.59074095999941,48.7623138352532));
#272=CARTESIAN_POINT('Ctrl Pts',(-5.87374622031365,-1.23776803829002,48.4093409135438));
#273=CARTESIAN_POINT('Ctrl Pts',(-5.9188739106068,-1.01415562391481,48.2557130277668));
#274=CARTESIAN_POINT('Ctrl Pts',(-5.98240475886912,-0.521932274441717,48.0509911583939));
#275=CARTESIAN_POINT('Ctrl Pts',(-6.,-0.253174643734704,48.));
#276=CARTESIAN_POINT('Ctrl Pts',(-6.,-4.16333634234434E-16,48.));
#277=CARTESIAN_POINT('Origin',(0.,0.,1.));
#278=CARTESIAN_POINT('',(6.,-7.34788079488412E-16,2.));
#279=CARTESIAN_POINT('',(-6.,-7.34788079488412E-16,2.));
#280=CARTESIAN_POINT('Origin',(0.,0.,2.));
#281=CARTESIAN_POINT('Origin',(0.,0.,2.));
#282=CARTESIAN_POINT('',(4.,4.89858719658941E-16,0.));
#283=CARTESIAN_POINT('',(5.,6.12323399573677E-16,1.));
#284=CARTESIAN_POINT('Origin',(0.,0.,0.));
#285=CARTESIAN_POINT('Origin',(0.,0.,0.));
#286=CARTESIAN_POINT('',(6.,7.34788079488412E-16,58.));
#287=CARTESIAN_POINT('',(-6.,-7.34788079488412E-16,58.));
#288=CARTESIAN_POINT('Origin',(0.,0.,58.));
#289=CARTESIAN_POINT('Origin',(0.,0.,58.));
#290=CARTESIAN_POINT('',(-6.,-7.34788079488412E-16,0.));
#291=CARTESIAN_POINT('',(-6.,-7.34788079488412E-16,0.));
#292=CARTESIAN_POINT('Origin',(0.,0.,0.));
#293=CARTESIAN_POINT('Origin',(0.,0.,59.));
#294=CARTESIAN_POINT('',(4.,-4.89858719658941E-16,60.));
#295=CARTESIAN_POINT('Origin',(0.,0.,60.));
#296=CARTESIAN_POINT('',(5.,6.12323399573677E-16,59.));
#297=CARTESIAN_POINT('Origin',(0.,0.,60.));
#298=UNCERTAINTY_MEASURE_WITH_UNIT(LENGTH_MEASURE(0.01),#302,
'DISTANCE_ACCURACY_VALUE',
'Maximum model space distance between geometric entities at asserted c
onnectivities');
#299=UNCERTAINTY_MEASURE_WITH_UNIT(LENGTH_MEASURE(0.01),#302,
'DISTANCE_ACCURACY_VALUE',
'Maximum model space distance between geometric entities at asserted c
onnectivities');
#300=(
GEOMETRIC_REPRESENTATION_CONTEXT(3)
GLOBAL_UNCERTAINTY_ASSIGNED_CONTEXT((#298))
GLOBAL_UNIT_ASSIGNED_CONTEXT((#302,#304,#305))
REPRESENTATION_CONTEXT('','3D')
);
#301=(
GEOMETRIC_REPRESENTATION_CONTEXT(3)
GLOBAL_UNCERTAINTY_ASSIGNED_CONTEXT((#299))
GLOBAL_UNIT_ASSIGNED_CONTEXT((#302,#304,#305))
REPRESENTATION_CONTEXT('','3D')
);
#302=(
LENGTH_UNIT()
NAMED_UNIT(*)
SI_UNIT(.MILLI.,.METRE.)
);
#303=(
LENGTH_UNIT()
NAMED_UNIT(*)
SI_UNIT(.CENTI.,.METRE.)
);
#304=(
NAMED_UNIT(*)
PLANE_ANGLE_UNIT()
SI_UNIT($,.RADIAN.)
);
#305=(
NAMED_UNIT(*)
SI_UNIT($,.STERADIAN.)
SOLID_ANGLE_UNIT()
);
#306=SHAPE_DEFINITION_REPRESENTATION(#307,#308);
#307=PRODUCT_DEFINITION_SHAPE('',$,#310);
#308=SHAPE_REPRESENTATION('',(#148),#300);
#309=PRODUCT_DEFINITION_CONTEXT('part definition',#314,'design');
#310=PRODUCT_DEFINITION('Pige controle 12mm','Pige controle 12mm',#311,
#309);
#311=PRODUCT_DEFINITION_FORMATION('',$,#316);
#312=PRODUCT_RELATED_PRODUCT_CATEGORY('Pige controle 12mm',
'Pige controle 12mm',(#316));
#313=APPLICATION_PROTOCOL_DEFINITION('international standard',
'automotive_design',2009,#314);
#314=APPLICATION_CONTEXT(
'Core Data for Automotive Mechanical Design Process');
#315=PRODUCT_CONTEXT('part definition',#314,'mechanical');
#316=PRODUCT('Pige controle 12mm','Pige controle 12mm',$,(#315));
#317=PRESENTATION_STYLE_ASSIGNMENT((#318));
#318=SURFACE_STYLE_USAGE(.BOTH.,#321);
#319=SURFACE_STYLE_RENDERING_WITH_PROPERTIES($,#325,(#320));
#320=SURFACE_STYLE_TRANSPARENT(0.);
#321=SURFACE_SIDE_STYLE('',(#322,#319));
#322=SURFACE_STYLE_FILL_AREA(#323);
#323=FILL_AREA_STYLE('',(#324));
#324=FILL_AREA_STYLE_COLOUR('',#325);
#325=COLOUR_RGB('',0.713725490196078,0.0705882352941176,0.0470588235294118);
ENDSEC;
END-ISO-10303-21;
