ISO-10303-21;
HEADER;
FILE_DESCRIPTION(('CATIA V5 STEP Exchange','CAx-IF Rec.Pracs.--- Model Styling and Organization---1.4--- 2014-01-23','CAx-IF Rec.Pracs.---3D Tessellated Data Validation Properties---0.5---2014-09-14'),'2;1');

FILE_NAME('C:\\Users\\arman\\OneDrive\\Bureau\\couvre rouleau2.stp','2022-11-24T13:38:52+00:00',('none'),('none'),'CATIA Version 5-6 Release 2018 SP6','CATIA V5 STEP AP242','none');

FILE_SCHEMA(('AP242_MANAGED_MODEL_BASED_3D_ENGINEERING_MIM_LF  {1 0 10303 442 1 1 4}'));

ENDSEC;
DATA;
#5=PRODUCT('couvre rouleau','','',(#2)) ;
#2=PRODUCT_CONTEXT(' ',#1,'mechanical') ;
#1=APPLICATION_CONTEXT('managed model based 3d engineering') ;
#10=PRODUCT_DEFINITION('',' ',#6,#3) ;
#3=PRODUCT_DEFINITION_CONTEXT('part definition',#1,' ') ;
#11=PRODUCT_DEFINITION_SHAPE(' ',' ',#10) ;
#379=MECHANICAL_DESIGN_GEOMETRIC_PRESENTATION_REPRESENTATION(' ',(#29),#16) ;
#19=SHAPE_REPRESENTATION(' ',(#18),#16) ;
#7=PRODUCT_CATEGORY('part','specification') ;
#17=CARTESIAN_POINT(' ',(0.,0.,0.)) ;
#31=CARTESIAN_POINT('Axis2P3D Location',(-115.,300.,99.)) ;
#36=CARTESIAN_POINT('Line Origine',(0.,300.,99.)) ;
#40=CARTESIAN_POINT('Vertex',(-115.,300.,99.)) ;
#42=CARTESIAN_POINT('Vertex',(115.,300.,99.)) ;
#45=CARTESIAN_POINT('Line Origine',(-115.,300.,130.378711532)) ;
#49=CARTESIAN_POINT('Vertex',(-115.,300.,161.757423065)) ;
#52=CARTESIAN_POINT('Line Origine',(0.,300.,161.757423065)) ;
#56=CARTESIAN_POINT('Vertex',(115.,300.,161.757423065)) ;
#59=CARTESIAN_POINT('Line Origine',(115.,300.,130.378711532)) ;
#71=CARTESIAN_POINT('Axis2P3D Location',(0.,100.,267.)) ;
#76=CARTESIAN_POINT('Axis2P3D Location',(-115.,100.,267.)) ;
#80=CARTESIAN_POINT('Vertex',(-115.,-102.672149049,167.)) ;
#83=CARTESIAN_POINT('Line Origine',(0.,-102.672149049,167.)) ;
#87=CARTESIAN_POINT('Vertex',(115.,-102.672149049,167.)) ;
#90=CARTESIAN_POINT('Axis2P3D Location',(115.,100.,267.)) ;
#102=CARTESIAN_POINT('Axis2P3D Location',(-115.,-102.672149049,167.)) ;
#107=CARTESIAN_POINT('Line Origine',(-115.,-102.672149049,104.5)) ;
#111=CARTESIAN_POINT('Vertex',(-115.,-102.672149049,42.)) ;
#114=CARTESIAN_POINT('Line Origine',(0.,-102.672149049,42.)) ;
#118=CARTESIAN_POINT('Vertex',(115.,-102.672149049,42.)) ;
#121=CARTESIAN_POINT('Line Origine',(115.,-102.672149049,104.5)) ;
#133=CARTESIAN_POINT('Axis2P3D Location',(-115.,-102.672149049,42.)) ;
#138=CARTESIAN_POINT('Line Origine',(-115.,-92.6721490487,42.)) ;
#142=CARTESIAN_POINT('Vertex',(-115.,-82.6721490487,42.)) ;
#145=CARTESIAN_POINT('Line Origine',(0.,-82.6721490487,42.)) ;
#149=CARTESIAN_POINT('Vertex',(115.,-82.6721490487,42.)) ;
#152=CARTESIAN_POINT('Line Origine',(115.,-92.6721490487,42.)) ;
#164=CARTESIAN_POINT('Axis2P3D Location',(-115.,-82.6721490487,42.)) ;
#169=CARTESIAN_POINT('Line Origine',(-115.,-82.6721490487,42.5)) ;
#173=CARTESIAN_POINT('Vertex',(-115.,-82.6721490487,43.)) ;
#176=CARTESIAN_POINT('Line Origine',(0.,-82.6721490487,43.)) ;
#180=CARTESIAN_POINT('Vertex',(115.,-82.6721490487,43.)) ;
#183=CARTESIAN_POINT('Line Origine',(115.,-82.6721490487,42.5)) ;
#195=CARTESIAN_POINT('Axis2P3D Location',(-115.,-82.6721490487,43.)) ;
#200=CARTESIAN_POINT('Line Origine',(-115.,-92.1721490487,43.)) ;
#204=CARTESIAN_POINT('Vertex',(-115.,-101.672149049,43.)) ;
#207=CARTESIAN_POINT('Line Origine',(0.,-101.672149049,43.)) ;
#211=CARTESIAN_POINT('Vertex',(115.,-101.672149049,43.)) ;
#214=CARTESIAN_POINT('Line Origine',(115.,-92.1721490487,43.)) ;
#226=CARTESIAN_POINT('Axis2P3D Location',(-115.,-101.672149049,167.23355124)) ;
#231=CARTESIAN_POINT('Line Origine',(115.,-101.672149049,105.11677562)) ;
#235=CARTESIAN_POINT('Vertex',(115.,-101.672149049,167.23355124)) ;
#238=CARTESIAN_POINT('Line Origine',(-115.,-101.672149049,105.11677562)) ;
#242=CARTESIAN_POINT('Vertex',(-115.,-101.672149049,167.23355124)) ;
#245=CARTESIAN_POINT('Line Origine',(0.,-101.672149049,167.23355124)) ;
#257=CARTESIAN_POINT('Axis2P3D Location',(0.,100.,267.)) ;
#262=CARTESIAN_POINT('Axis2P3D Location',(115.,100.,267.)) ;
#266=CARTESIAN_POINT('Vertex',(115.,299.,162.004762013)) ;
#269=CARTESIAN_POINT('Axis2P3D Location',(-115.,100.,267.)) ;
#273=CARTESIAN_POINT('Vertex',(-115.,299.,162.004762013)) ;
#276=CARTESIAN_POINT('Line Origine',(0.,299.,162.004762013)) ;
#288=CARTESIAN_POINT('Axis2P3D Location',(-115.,299.,99.)) ;
#293=CARTESIAN_POINT('Line Origine',(115.,299.,130.502381006)) ;
#297=CARTESIAN_POINT('Vertex',(115.,299.,99.)) ;
#300=CARTESIAN_POINT('Line Origine',(-115.,299.,130.502381006)) ;
#304=CARTESIAN_POINT('Vertex',(-115.,299.,99.)) ;
#307=CARTESIAN_POINT('Line Origine',(0.,299.,99.)) ;
#319=CARTESIAN_POINT('Axis2P3D Location',(-115.,300.,99.)) ;
#324=CARTESIAN_POINT('Line Origine',(115.,299.5,99.)) ;
#329=CARTESIAN_POINT('Line Origine',(-115.,299.5,99.)) ;
#341=CARTESIAN_POINT('Axis2P3D Location',(-115.,300.,99.)) ;
#359=CARTESIAN_POINT('Axis2P3D Location',(115.,300.,99.)) ;
#8=PRODUCT_RELATED_PRODUCT_CATEGORY('part',$,(#5)) ;
#29=STYLED_ITEM(' ',(#28),#21) ;
#28=PRESENTATION_STYLE_ASSIGNMENT((#27)) ;
#27=SURFACE_STYLE_USAGE(.BOTH.,#26) ;
#26=SURFACE_SIDE_STYLE(' ',(#25)) ;
#25=SURFACE_STYLE_FILL_AREA(#24) ;
#24=FILL_AREA_STYLE(' ',(#23)) ;
#23=FILL_AREA_STYLE_COLOUR(' ',#22) ;
#38=VECTOR('Line Direction',#37,1.) ;
#47=VECTOR('Line Direction',#46,1.) ;
#54=VECTOR('Line Direction',#53,1.) ;
#61=VECTOR('Line Direction',#60,1.) ;
#85=VECTOR('Line Direction',#84,1.) ;
#109=VECTOR('Line Direction',#108,1.) ;
#116=VECTOR('Line Direction',#115,1.) ;
#123=VECTOR('Line Direction',#122,1.) ;
#140=VECTOR('Line Direction',#139,1.) ;
#147=VECTOR('Line Direction',#146,1.) ;
#154=VECTOR('Line Direction',#153,1.) ;
#171=VECTOR('Line Direction',#170,1.) ;
#178=VECTOR('Line Direction',#177,1.) ;
#185=VECTOR('Line Direction',#184,1.) ;
#202=VECTOR('Line Direction',#201,1.) ;
#209=VECTOR('Line Direction',#208,1.) ;
#216=VECTOR('Line Direction',#215,1.) ;
#233=VECTOR('Line Direction',#232,1.) ;
#240=VECTOR('Line Direction',#239,1.) ;
#247=VECTOR('Line Direction',#246,1.) ;
#278=VECTOR('Line Direction',#277,1.) ;
#295=VECTOR('Line Direction',#294,1.) ;
#302=VECTOR('Line Direction',#301,1.) ;
#309=VECTOR('Line Direction',#308,1.) ;
#326=VECTOR('Line Direction',#325,1.) ;
#331=VECTOR('Line Direction',#330,1.) ;
#32=DIRECTION('Axis2P3D Direction',(0.,1.,0.)) ;
#33=DIRECTION('Axis2P3D XDirection',(0.,0.,1.)) ;
#37=DIRECTION('Vector Direction',(1.,0.,0.)) ;
#46=DIRECTION('Vector Direction',(0.,0.,1.)) ;
#53=DIRECTION('Vector Direction',(1.,0.,0.)) ;
#60=DIRECTION('Vector Direction',(0.,0.,1.)) ;
#72=DIRECTION('Axis2P3D Direction',(1.,0.,0.)) ;
#73=DIRECTION('Axis2P3D XDirection',(0.,0.884955752212,-0.465675119183)) ;
#77=DIRECTION('Axis2P3D Direction',(1.,0.,0.)) ;
#84=DIRECTION('Vector Direction',(1.,0.,0.)) ;
#91=DIRECTION('Axis2P3D Direction',(1.,0.,0.)) ;
#103=DIRECTION('Axis2P3D Direction',(0.,-1.,0.)) ;
#104=DIRECTION('Axis2P3D XDirection',(0.,0.,-1.)) ;
#108=DIRECTION('Vector Direction',(0.,0.,-1.)) ;
#115=DIRECTION('Vector Direction',(1.,0.,0.)) ;
#122=DIRECTION('Vector Direction',(0.,0.,-1.)) ;
#134=DIRECTION('Axis2P3D Direction',(0.,0.,-1.)) ;
#135=DIRECTION('Axis2P3D XDirection',(0.,1.,0.)) ;
#139=DIRECTION('Vector Direction',(0.,1.,0.)) ;
#146=DIRECTION('Vector Direction',(1.,0.,0.)) ;
#153=DIRECTION('Vector Direction',(0.,1.,0.)) ;
#165=DIRECTION('Axis2P3D Direction',(0.,1.,0.)) ;
#166=DIRECTION('Axis2P3D XDirection',(0.,0.,1.)) ;
#170=DIRECTION('Vector Direction',(0.,0.,1.)) ;
#177=DIRECTION('Vector Direction',(1.,0.,0.)) ;
#184=DIRECTION('Vector Direction',(0.,0.,1.)) ;
#196=DIRECTION('Axis2P3D Direction',(-0.,0.,1.)) ;
#197=DIRECTION('Axis2P3D XDirection',(0.,-1.,0.)) ;
#201=DIRECTION('Vector Direction',(0.,-1.,0.)) ;
#208=DIRECTION('Vector Direction',(1.,0.,0.)) ;
#215=DIRECTION('Vector Direction',(0.,-1.,0.)) ;
#227=DIRECTION('Axis2P3D Direction',(0.,-1.,0.)) ;
#228=DIRECTION('Axis2P3D XDirection',(0.,0.,-1.)) ;
#232=DIRECTION('Vector Direction',(0.,0.,-1.)) ;
#239=DIRECTION('Vector Direction',(0.,0.,-1.)) ;
#246=DIRECTION('Vector Direction',(1.,0.,0.)) ;
#258=DIRECTION('Axis2P3D Direction',(1.,0.,0.)) ;
#259=DIRECTION('Axis2P3D XDirection',(0.,0.884444444444,-0.466645502166)) ;
#263=DIRECTION('Axis2P3D Direction',(1.,0.,0.)) ;
#270=DIRECTION('Axis2P3D Direction',(1.,0.,0.)) ;
#277=DIRECTION('Vector Direction',(1.,0.,0.)) ;
#289=DIRECTION('Axis2P3D Direction',(0.,1.,0.)) ;
#290=DIRECTION('Axis2P3D XDirection',(0.,0.,1.)) ;
#294=DIRECTION('Vector Direction',(0.,0.,1.)) ;
#301=DIRECTION('Vector Direction',(0.,0.,1.)) ;
#308=DIRECTION('Vector Direction',(1.,0.,0.)) ;
#320=DIRECTION('Axis2P3D Direction',(-0.,0.,1.)) ;
#321=DIRECTION('Axis2P3D XDirection',(0.,-1.,0.)) ;
#325=DIRECTION('Vector Direction',(0.,-1.,0.)) ;
#330=DIRECTION('Vector Direction',(0.,-1.,0.)) ;
#342=DIRECTION('Axis2P3D Direction',(1.,0.,0.)) ;
#343=DIRECTION('Axis2P3D XDirection',(0.,1.,0.)) ;
#360=DIRECTION('Axis2P3D Direction',(1.,0.,0.)) ;
#361=DIRECTION('Axis2P3D XDirection',(0.,1.,0.)) ;
#15=UNCERTAINTY_MEASURE_WITH_UNIT(LENGTH_MEASURE(0.005),#12,'distance_accuracy_value','CONFUSED CURVE UNCERTAINTY') ;
#18=AXIS2_PLACEMENT_3D(' ',#17,$,$) ;
#34=AXIS2_PLACEMENT_3D('Plane Axis2P3D',#31,#32,#33) ;
#74=AXIS2_PLACEMENT_3D('Cylinder Axis2P3D',#71,#72,#73) ;
#78=AXIS2_PLACEMENT_3D('Circle Axis2P3D',#76,#77,$) ;
#92=AXIS2_PLACEMENT_3D('Circle Axis2P3D',#90,#91,$) ;
#105=AXIS2_PLACEMENT_3D('Plane Axis2P3D',#102,#103,#104) ;
#136=AXIS2_PLACEMENT_3D('Plane Axis2P3D',#133,#134,#135) ;
#167=AXIS2_PLACEMENT_3D('Plane Axis2P3D',#164,#165,#166) ;
#198=AXIS2_PLACEMENT_3D('Plane Axis2P3D',#195,#196,#197) ;
#229=AXIS2_PLACEMENT_3D('Plane Axis2P3D',#226,#227,#228) ;
#260=AXIS2_PLACEMENT_3D('Cylinder Axis2P3D',#257,#258,#259) ;
#264=AXIS2_PLACEMENT_3D('Circle Axis2P3D',#262,#263,$) ;
#271=AXIS2_PLACEMENT_3D('Circle Axis2P3D',#269,#270,$) ;
#291=AXIS2_PLACEMENT_3D('Plane Axis2P3D',#288,#289,#290) ;
#322=AXIS2_PLACEMENT_3D('Plane Axis2P3D',#319,#320,#321) ;
#344=AXIS2_PLACEMENT_3D('Plane Axis2P3D',#341,#342,#343) ;
#362=AXIS2_PLACEMENT_3D('Plane Axis2P3D',#359,#360,#361) ;
#39=LINE('Line',#36,#38) ;
#48=LINE('Line',#45,#47) ;
#55=LINE('Line',#52,#54) ;
#62=LINE('Line',#59,#61) ;
#86=LINE('Line',#83,#85) ;
#110=LINE('Line',#107,#109) ;
#117=LINE('Line',#114,#116) ;
#124=LINE('Line',#121,#123) ;
#141=LINE('Line',#138,#140) ;
#148=LINE('Line',#145,#147) ;
#155=LINE('Line',#152,#154) ;
#172=LINE('Line',#169,#171) ;
#179=LINE('Line',#176,#178) ;
#186=LINE('Line',#183,#185) ;
#203=LINE('Line',#200,#202) ;
#210=LINE('Line',#207,#209) ;
#217=LINE('Line',#214,#216) ;
#234=LINE('Line',#231,#233) ;
#241=LINE('Line',#238,#240) ;
#248=LINE('Line',#245,#247) ;
#279=LINE('Line',#276,#278) ;
#296=LINE('Line',#293,#295) ;
#303=LINE('Line',#300,#302) ;
#310=LINE('Line',#307,#309) ;
#327=LINE('Line',#324,#326) ;
#332=LINE('Line',#329,#331) ;
#79=CIRCLE('generated circle',#78,226.) ;
#93=CIRCLE('generated circle',#92,226.) ;
#265=CIRCLE('generated circle',#264,225.) ;
#272=CIRCLE('generated circle',#271,225.) ;
#35=PLANE('',#34) ;
#106=PLANE('',#105) ;
#137=PLANE('',#136) ;
#168=PLANE('',#167) ;
#199=PLANE('',#198) ;
#230=PLANE('',#229) ;
#292=PLANE('',#291) ;
#323=PLANE('',#322) ;
#345=PLANE('',#344) ;
#363=PLANE('',#362) ;
#75=CYLINDRICAL_SURFACE('generated cylinder',#74,226.) ;
#261=CYLINDRICAL_SURFACE('generated cylinder',#260,225.) ;
#44=EDGE_CURVE('',#41,#43,#39,.T.) ;
#51=EDGE_CURVE('',#41,#50,#48,.T.) ;
#58=EDGE_CURVE('',#50,#57,#55,.T.) ;
#63=EDGE_CURVE('',#43,#57,#62,.T.) ;
#82=EDGE_CURVE('',#50,#81,#79,.T.) ;
#89=EDGE_CURVE('',#81,#88,#86,.T.) ;
#94=EDGE_CURVE('',#57,#88,#93,.T.) ;
#113=EDGE_CURVE('',#81,#112,#110,.T.) ;
#120=EDGE_CURVE('',#112,#119,#117,.T.) ;
#125=EDGE_CURVE('',#88,#119,#124,.T.) ;
#144=EDGE_CURVE('',#112,#143,#141,.T.) ;
#151=EDGE_CURVE('',#143,#150,#148,.T.) ;
#156=EDGE_CURVE('',#119,#150,#155,.T.) ;
#175=EDGE_CURVE('',#143,#174,#172,.T.) ;
#182=EDGE_CURVE('',#174,#181,#179,.T.) ;
#187=EDGE_CURVE('',#150,#181,#186,.T.) ;
#206=EDGE_CURVE('',#174,#205,#203,.T.) ;
#213=EDGE_CURVE('',#205,#212,#210,.T.) ;
#218=EDGE_CURVE('',#181,#212,#217,.T.) ;
#237=EDGE_CURVE('',#236,#212,#234,.T.) ;
#244=EDGE_CURVE('',#243,#205,#241,.T.) ;
#249=EDGE_CURVE('',#243,#236,#248,.T.) ;
#268=EDGE_CURVE('',#267,#236,#265,.T.) ;
#275=EDGE_CURVE('',#274,#243,#272,.T.) ;
#280=EDGE_CURVE('',#274,#267,#279,.T.) ;
#299=EDGE_CURVE('',#298,#267,#296,.T.) ;
#306=EDGE_CURVE('',#305,#274,#303,.T.) ;
#311=EDGE_CURVE('',#305,#298,#310,.T.) ;
#328=EDGE_CURVE('',#43,#298,#327,.T.) ;
#333=EDGE_CURVE('',#41,#305,#332,.T.) ;
#30=CLOSED_SHELL('Closed Shell',(#70,#101,#132,#163,#194,#225,#256,#287,#318,#340,#358,#376)) ;
#378=SHAPE_REPRESENTATION_RELATIONSHIP(' ',' ',#19,#377) ;
#64=EDGE_LOOP('',(#65,#66,#67,#68)) ;
#95=EDGE_LOOP('',(#96,#97,#98,#99)) ;
#126=EDGE_LOOP('',(#127,#128,#129,#130)) ;
#157=EDGE_LOOP('',(#158,#159,#160,#161)) ;
#188=EDGE_LOOP('',(#189,#190,#191,#192)) ;
#219=EDGE_LOOP('',(#220,#221,#222,#223)) ;
#250=EDGE_LOOP('',(#251,#252,#253,#254)) ;
#281=EDGE_LOOP('',(#282,#283,#284,#285)) ;
#312=EDGE_LOOP('',(#313,#314,#315,#316)) ;
#334=EDGE_LOOP('',(#335,#336,#337,#338)) ;
#346=EDGE_LOOP('',(#347,#348,#349,#350,#351,#352,#353,#354,#355,#356)) ;
#364=EDGE_LOOP('',(#365,#366,#367,#368,#369,#370,#371,#372,#373,#374)) ;
#65=ORIENTED_EDGE('',*,*,#44,.F.) ;
#66=ORIENTED_EDGE('',*,*,#51,.T.) ;
#67=ORIENTED_EDGE('',*,*,#58,.T.) ;
#68=ORIENTED_EDGE('',*,*,#63,.F.) ;
#96=ORIENTED_EDGE('',*,*,#58,.F.) ;
#97=ORIENTED_EDGE('',*,*,#82,.T.) ;
#98=ORIENTED_EDGE('',*,*,#89,.T.) ;
#99=ORIENTED_EDGE('',*,*,#94,.F.) ;
#127=ORIENTED_EDGE('',*,*,#89,.F.) ;
#128=ORIENTED_EDGE('',*,*,#113,.T.) ;
#129=ORIENTED_EDGE('',*,*,#120,.T.) ;
#130=ORIENTED_EDGE('',*,*,#125,.F.) ;
#158=ORIENTED_EDGE('',*,*,#120,.F.) ;
#159=ORIENTED_EDGE('',*,*,#144,.T.) ;
#160=ORIENTED_EDGE('',*,*,#151,.T.) ;
#161=ORIENTED_EDGE('',*,*,#156,.F.) ;
#189=ORIENTED_EDGE('',*,*,#151,.F.) ;
#190=ORIENTED_EDGE('',*,*,#175,.T.) ;
#191=ORIENTED_EDGE('',*,*,#182,.T.) ;
#192=ORIENTED_EDGE('',*,*,#187,.F.) ;
#220=ORIENTED_EDGE('',*,*,#182,.F.) ;
#221=ORIENTED_EDGE('',*,*,#206,.T.) ;
#222=ORIENTED_EDGE('',*,*,#213,.T.) ;
#223=ORIENTED_EDGE('',*,*,#218,.F.) ;
#251=ORIENTED_EDGE('',*,*,#237,.T.) ;
#252=ORIENTED_EDGE('',*,*,#213,.F.) ;
#253=ORIENTED_EDGE('',*,*,#244,.F.) ;
#254=ORIENTED_EDGE('',*,*,#249,.T.) ;
#282=ORIENTED_EDGE('',*,*,#268,.T.) ;
#283=ORIENTED_EDGE('',*,*,#249,.F.) ;
#284=ORIENTED_EDGE('',*,*,#275,.F.) ;
#285=ORIENTED_EDGE('',*,*,#280,.T.) ;
#313=ORIENTED_EDGE('',*,*,#299,.T.) ;
#314=ORIENTED_EDGE('',*,*,#280,.F.) ;
#315=ORIENTED_EDGE('',*,*,#306,.F.) ;
#316=ORIENTED_EDGE('',*,*,#311,.T.) ;
#335=ORIENTED_EDGE('',*,*,#328,.T.) ;
#336=ORIENTED_EDGE('',*,*,#311,.F.) ;
#337=ORIENTED_EDGE('',*,*,#333,.F.) ;
#338=ORIENTED_EDGE('',*,*,#44,.T.) ;
#347=ORIENTED_EDGE('',*,*,#333,.T.) ;
#348=ORIENTED_EDGE('',*,*,#306,.T.) ;
#349=ORIENTED_EDGE('',*,*,#275,.T.) ;
#350=ORIENTED_EDGE('',*,*,#244,.T.) ;
#351=ORIENTED_EDGE('',*,*,#206,.F.) ;
#352=ORIENTED_EDGE('',*,*,#175,.F.) ;
#353=ORIENTED_EDGE('',*,*,#144,.F.) ;
#354=ORIENTED_EDGE('',*,*,#113,.F.) ;
#355=ORIENTED_EDGE('',*,*,#82,.F.) ;
#356=ORIENTED_EDGE('',*,*,#51,.F.) ;
#365=ORIENTED_EDGE('',*,*,#63,.T.) ;
#366=ORIENTED_EDGE('',*,*,#94,.T.) ;
#367=ORIENTED_EDGE('',*,*,#125,.T.) ;
#368=ORIENTED_EDGE('',*,*,#156,.T.) ;
#369=ORIENTED_EDGE('',*,*,#187,.T.) ;
#370=ORIENTED_EDGE('',*,*,#218,.T.) ;
#371=ORIENTED_EDGE('',*,*,#237,.F.) ;
#372=ORIENTED_EDGE('',*,*,#268,.F.) ;
#373=ORIENTED_EDGE('',*,*,#299,.F.) ;
#374=ORIENTED_EDGE('',*,*,#328,.F.) ;
#21=MANIFOLD_SOLID_BREP('Corps principal',#30) ;
#41=VERTEX_POINT('',#40) ;
#43=VERTEX_POINT('',#42) ;
#50=VERTEX_POINT('',#49) ;
#57=VERTEX_POINT('',#56) ;
#81=VERTEX_POINT('',#80) ;
#88=VERTEX_POINT('',#87) ;
#112=VERTEX_POINT('',#111) ;
#119=VERTEX_POINT('',#118) ;
#143=VERTEX_POINT('',#142) ;
#150=VERTEX_POINT('',#149) ;
#174=VERTEX_POINT('',#173) ;
#181=VERTEX_POINT('',#180) ;
#205=VERTEX_POINT('',#204) ;
#212=VERTEX_POINT('',#211) ;
#236=VERTEX_POINT('',#235) ;
#243=VERTEX_POINT('',#242) ;
#267=VERTEX_POINT('',#266) ;
#274=VERTEX_POINT('',#273) ;
#298=VERTEX_POINT('',#297) ;
#305=VERTEX_POINT('',#304) ;
#377=ADVANCED_BREP_SHAPE_REPRESENTATION('NONE',(#21),#16) ;
#70=ADVANCED_FACE('Corps principal',(#69),#35,.T.) ;
#101=ADVANCED_FACE('Corps principal',(#100),#75,.T.) ;
#132=ADVANCED_FACE('Corps principal',(#131),#106,.T.) ;
#163=ADVANCED_FACE('Corps principal',(#162),#137,.T.) ;
#194=ADVANCED_FACE('Corps principal',(#193),#168,.T.) ;
#225=ADVANCED_FACE('Corps principal',(#224),#199,.T.) ;
#256=ADVANCED_FACE('Corps principal',(#255),#230,.F.) ;
#287=ADVANCED_FACE('Corps principal',(#286),#261,.F.) ;
#318=ADVANCED_FACE('Corps principal',(#317),#292,.F.) ;
#340=ADVANCED_FACE('Corps principal',(#339),#323,.F.) ;
#358=ADVANCED_FACE('Corps principal',(#357),#345,.F.) ;
#376=ADVANCED_FACE('Corps principal',(#375),#363,.T.) ;
#4=APPLICATION_PROTOCOL_DEFINITION('international standard','ap242_managed_model_based_3d_engineering',2014,#1) ;
#22=COLOUR_RGB('Colour',0.823529411765,0.823529411765,1.) ;
#69=FACE_OUTER_BOUND('',#64,.T.) ;
#100=FACE_OUTER_BOUND('',#95,.T.) ;
#131=FACE_OUTER_BOUND('',#126,.T.) ;
#162=FACE_OUTER_BOUND('',#157,.T.) ;
#193=FACE_OUTER_BOUND('',#188,.T.) ;
#224=FACE_OUTER_BOUND('',#219,.T.) ;
#255=FACE_OUTER_BOUND('',#250,.T.) ;
#286=FACE_OUTER_BOUND('',#281,.T.) ;
#317=FACE_OUTER_BOUND('',#312,.T.) ;
#339=FACE_OUTER_BOUND('',#334,.T.) ;
#357=FACE_OUTER_BOUND('',#346,.T.) ;
#375=FACE_OUTER_BOUND('',#364,.T.) ;
#9=PRODUCT_CATEGORY_RELATIONSHIP(' ',' ',#7,#8) ;
#6=PRODUCT_DEFINITION_FORMATION_WITH_SPECIFIED_SOURCE('',' ',#5,.NOT_KNOWN.) ;
#20=SHAPE_DEFINITION_REPRESENTATION(#11,#19) ;
#12=(LENGTH_UNIT()NAMED_UNIT(*)SI_UNIT(.MILLI.,.METRE.)) ;
#13=(NAMED_UNIT(*)PLANE_ANGLE_UNIT()SI_UNIT($,.RADIAN.)) ;
#14=(NAMED_UNIT(*)SI_UNIT($,.STERADIAN.)SOLID_ANGLE_UNIT()) ;
#16=(GEOMETRIC_REPRESENTATION_CONTEXT(3)GLOBAL_UNCERTAINTY_ASSIGNED_CONTEXT((#15))GLOBAL_UNIT_ASSIGNED_CONTEXT((#12,#13,#14))REPRESENTATION_CONTEXT(' ',' ')) ;
ENDSEC;
END-ISO-10303-21;
