ISO-10303-21;
HEADER;
/* Generated by software containing ST-Developer
 * from STEP Tools, Inc. (www.steptools.com) 
 */

FILE_DESCRIPTION(
/* description */ (''),
/* implementation_level */ '2;1');

FILE_NAME(
/* name */ 
'C:\\VAULT_LOCAL\\WORKSPACE\\05_GSE\\MGSE\\GSE-052-MGSE-Torsional Thru
st Balance V2\\Measurement subsystem\\Base position plate holder.stp',
/* time_stamp */ '2022-11-07T17:44:50+01:00',
/* author */ ('exolab-5mv6l'),
/* organization */ (''),
/* preprocessor_version */ 'ST-DEVELOPER v18.1',
/* originating_system */ 'Autodesk Inventor 2022',
/* authorisation */ '');

FILE_SCHEMA (('AUTOMOTIVE_DESIGN { 1 0 10303 214 3 1 1 }'));
ENDSEC;

DATA;
#10=MECHANICAL_DESIGN_GEOMETRIC_PRESENTATION_REPRESENTATION('',(#13),#445);
#11=SHAPE_REPRESENTATION_RELATIONSHIP('SRR','None',#452,#12);
#12=ADVANCED_BREP_SHAPE_REPRESENTATION('',(#14),#444);
#13=STYLED_ITEM('',(#461),#14);
#14=MANIFOLD_SOLID_BREP('Solide2',#256);
#15=FACE_BOUND('',#46,.T.);
#16=FACE_BOUND('',#51,.T.);
#17=FACE_BOUND('',#56,.T.);
#18=FACE_BOUND('',#57,.T.);
#19=FACE_BOUND('',#58,.T.);
#20=FACE_BOUND('',#60,.T.);
#21=PLANE('',#288);
#22=PLANE('',#295);
#23=PLANE('',#296);
#24=PLANE('',#297);
#25=PLANE('',#298);
#26=PLANE('',#299);
#27=PLANE('',#300);
#28=PLANE('',#301);
#29=FACE_OUTER_BOUND('',#42,.T.);
#30=FACE_OUTER_BOUND('',#43,.T.);
#31=FACE_OUTER_BOUND('',#44,.T.);
#32=FACE_OUTER_BOUND('',#45,.T.);
#33=FACE_OUTER_BOUND('',#47,.T.);
#34=FACE_OUTER_BOUND('',#48,.T.);
#35=FACE_OUTER_BOUND('',#49,.T.);
#36=FACE_OUTER_BOUND('',#50,.T.);
#37=FACE_OUTER_BOUND('',#52,.T.);
#38=FACE_OUTER_BOUND('',#53,.T.);
#39=FACE_OUTER_BOUND('',#54,.T.);
#40=FACE_OUTER_BOUND('',#55,.T.);
#41=FACE_OUTER_BOUND('',#59,.T.);
#42=EDGE_LOOP('',(#172,#173,#174,#175));
#43=EDGE_LOOP('',(#176,#177,#178,#179));
#44=EDGE_LOOP('',(#180,#181,#182,#183));
#45=EDGE_LOOP('',(#184,#185,#186,#187));
#46=EDGE_LOOP('',(#188));
#47=EDGE_LOOP('',(#189,#190,#191,#192));
#48=EDGE_LOOP('',(#193,#194,#195,#196));
#49=EDGE_LOOP('',(#197,#198,#199,#200,#201,#202,#203,#204));
#50=EDGE_LOOP('',(#205,#206,#207,#208));
#51=EDGE_LOOP('',(#209));
#52=EDGE_LOOP('',(#210,#211,#212,#213));
#53=EDGE_LOOP('',(#214,#215,#216,#217,#218,#219,#220,#221));
#54=EDGE_LOOP('',(#222,#223,#224,#225));
#55=EDGE_LOOP('',(#226,#227,#228,#229));
#56=EDGE_LOOP('',(#230));
#57=EDGE_LOOP('',(#231));
#58=EDGE_LOOP('',(#232));
#59=EDGE_LOOP('',(#233,#234,#235,#236));
#60=EDGE_LOOP('',(#237));
#61=LINE('',#378,#84);
#62=LINE('',#384,#85);
#63=LINE('',#389,#86);
#64=LINE('',#393,#87);
#65=LINE('',#397,#88);
#66=LINE('',#400,#89);
#67=LINE('',#405,#90);
#68=LINE('',#408,#91);
#69=LINE('',#411,#92);
#70=LINE('',#415,#93);
#71=LINE('',#417,#94);
#72=LINE('',#419,#95);
#73=LINE('',#421,#96);
#74=LINE('',#422,#97);
#75=LINE('',#425,#98);
#76=LINE('',#426,#99);
#77=LINE('',#429,#100);
#78=LINE('',#431,#101);
#79=LINE('',#432,#102);
#80=LINE('',#434,#103);
#81=LINE('',#436,#104);
#82=LINE('',#437,#105);
#83=LINE('',#439,#106);
#84=VECTOR('',#308,2.15);
#85=VECTOR('',#315,2.15);
#86=VECTOR('',#320,10.);
#87=VECTOR('',#323,10.);
#88=VECTOR('',#328,10.);
#89=VECTOR('',#331,10.);
#90=VECTOR('',#336,10.);
#91=VECTOR('',#339,10.);
#92=VECTOR('',#342,3.3);
#93=VECTOR('',#347,10.);
#94=VECTOR('',#348,10.);
#95=VECTOR('',#349,10.);
#96=VECTOR('',#350,10.);
#97=VECTOR('',#351,10.);
#98=VECTOR('',#354,10.);
#99=VECTOR('',#355,10.);
#100=VECTOR('',#358,10.);
#101=VECTOR('',#359,10.);
#102=VECTOR('',#360,10.);
#103=VECTOR('',#363,10.);
#104=VECTOR('',#364,10.);
#105=VECTOR('',#365,10.);
#106=VECTOR('',#368,10.);
#107=CIRCLE('',#280,2.15);
#108=CIRCLE('',#281,2.15);
#109=CIRCLE('',#283,2.15);
#110=CIRCLE('',#284,2.15);
#111=CIRCLE('',#286,7.275);
#112=CIRCLE('',#287,7.275);
#113=CIRCLE('',#289,7.275);
#114=CIRCLE('',#290,3.3);
#115=CIRCLE('',#292,7.275);
#116=CIRCLE('',#294,3.3);
#117=VERTEX_POINT('',#375);
#118=VERTEX_POINT('',#377);
#119=VERTEX_POINT('',#381);
#120=VERTEX_POINT('',#383);
#121=VERTEX_POINT('',#387);
#122=VERTEX_POINT('',#388);
#123=VERTEX_POINT('',#390);
#124=VERTEX_POINT('',#392);
#125=VERTEX_POINT('',#396);
#126=VERTEX_POINT('',#398);
#127=VERTEX_POINT('',#401);
#128=VERTEX_POINT('',#404);
#129=VERTEX_POINT('',#406);
#130=VERTEX_POINT('',#410);
#131=VERTEX_POINT('',#414);
#132=VERTEX_POINT('',#416);
#133=VERTEX_POINT('',#418);
#134=VERTEX_POINT('',#420);
#135=VERTEX_POINT('',#424);
#136=VERTEX_POINT('',#428);
#137=VERTEX_POINT('',#430);
#138=VERTEX_POINT('',#435);
#139=EDGE_CURVE('',#117,#117,#107,.T.);
#140=EDGE_CURVE('',#117,#118,#61,.T.);
#141=EDGE_CURVE('',#118,#118,#108,.T.);
#142=EDGE_CURVE('',#119,#119,#109,.T.);
#143=EDGE_CURVE('',#119,#120,#62,.T.);
#144=EDGE_CURVE('',#120,#120,#110,.T.);
#145=EDGE_CURVE('',#121,#122,#63,.T.);
#146=EDGE_CURVE('',#123,#121,#111,.T.);
#147=EDGE_CURVE('',#124,#123,#64,.T.);
#148=EDGE_CURVE('',#122,#124,#112,.T.);
#149=EDGE_CURVE('',#125,#121,#65,.T.);
#150=EDGE_CURVE('',#125,#126,#113,.T.);
#151=EDGE_CURVE('',#123,#126,#66,.T.);
#152=EDGE_CURVE('',#127,#127,#114,.T.);
#153=EDGE_CURVE('',#128,#125,#67,.T.);
#154=EDGE_CURVE('',#129,#128,#115,.T.);
#155=EDGE_CURVE('',#126,#129,#68,.T.);
#156=EDGE_CURVE('',#127,#130,#69,.T.);
#157=EDGE_CURVE('',#130,#130,#116,.T.);
#158=EDGE_CURVE('',#122,#131,#70,.T.);
#159=EDGE_CURVE('',#131,#132,#71,.T.);
#160=EDGE_CURVE('',#133,#132,#72,.T.);
#161=EDGE_CURVE('',#134,#133,#73,.T.);
#162=EDGE_CURVE('',#134,#128,#74,.T.);
#163=EDGE_CURVE('',#135,#124,#75,.T.);
#164=EDGE_CURVE('',#131,#135,#76,.T.);
#165=EDGE_CURVE('',#136,#134,#77,.T.);
#166=EDGE_CURVE('',#137,#133,#78,.T.);
#167=EDGE_CURVE('',#136,#137,#79,.T.);
#168=EDGE_CURVE('',#129,#136,#80,.T.);
#169=EDGE_CURVE('',#138,#137,#81,.T.);
#170=EDGE_CURVE('',#135,#138,#82,.T.);
#171=EDGE_CURVE('',#132,#138,#83,.T.);
#172=ORIENTED_EDGE('',*,*,#139,.F.);
#173=ORIENTED_EDGE('',*,*,#140,.T.);
#174=ORIENTED_EDGE('',*,*,#141,.F.);
#175=ORIENTED_EDGE('',*,*,#140,.F.);
#176=ORIENTED_EDGE('',*,*,#142,.F.);
#177=ORIENTED_EDGE('',*,*,#143,.T.);
#178=ORIENTED_EDGE('',*,*,#144,.F.);
#179=ORIENTED_EDGE('',*,*,#143,.F.);
#180=ORIENTED_EDGE('',*,*,#145,.F.);
#181=ORIENTED_EDGE('',*,*,#146,.F.);
#182=ORIENTED_EDGE('',*,*,#147,.F.);
#183=ORIENTED_EDGE('',*,*,#148,.F.);
#184=ORIENTED_EDGE('',*,*,#149,.F.);
#185=ORIENTED_EDGE('',*,*,#150,.T.);
#186=ORIENTED_EDGE('',*,*,#151,.F.);
#187=ORIENTED_EDGE('',*,*,#146,.T.);
#188=ORIENTED_EDGE('',*,*,#152,.F.);
#189=ORIENTED_EDGE('',*,*,#153,.F.);
#190=ORIENTED_EDGE('',*,*,#154,.F.);
#191=ORIENTED_EDGE('',*,*,#155,.F.);
#192=ORIENTED_EDGE('',*,*,#150,.F.);
#193=ORIENTED_EDGE('',*,*,#152,.T.);
#194=ORIENTED_EDGE('',*,*,#156,.T.);
#195=ORIENTED_EDGE('',*,*,#157,.F.);
#196=ORIENTED_EDGE('',*,*,#156,.F.);
#197=ORIENTED_EDGE('',*,*,#153,.T.);
#198=ORIENTED_EDGE('',*,*,#149,.T.);
#199=ORIENTED_EDGE('',*,*,#145,.T.);
#200=ORIENTED_EDGE('',*,*,#158,.T.);
#201=ORIENTED_EDGE('',*,*,#159,.T.);
#202=ORIENTED_EDGE('',*,*,#160,.F.);
#203=ORIENTED_EDGE('',*,*,#161,.F.);
#204=ORIENTED_EDGE('',*,*,#162,.T.);
#205=ORIENTED_EDGE('',*,*,#148,.T.);
#206=ORIENTED_EDGE('',*,*,#163,.F.);
#207=ORIENTED_EDGE('',*,*,#164,.F.);
#208=ORIENTED_EDGE('',*,*,#158,.F.);
#209=ORIENTED_EDGE('',*,*,#141,.T.);
#210=ORIENTED_EDGE('',*,*,#165,.T.);
#211=ORIENTED_EDGE('',*,*,#161,.T.);
#212=ORIENTED_EDGE('',*,*,#166,.F.);
#213=ORIENTED_EDGE('',*,*,#167,.F.);
#214=ORIENTED_EDGE('',*,*,#155,.T.);
#215=ORIENTED_EDGE('',*,*,#168,.T.);
#216=ORIENTED_EDGE('',*,*,#167,.T.);
#217=ORIENTED_EDGE('',*,*,#169,.F.);
#218=ORIENTED_EDGE('',*,*,#170,.F.);
#219=ORIENTED_EDGE('',*,*,#163,.T.);
#220=ORIENTED_EDGE('',*,*,#147,.T.);
#221=ORIENTED_EDGE('',*,*,#151,.T.);
#222=ORIENTED_EDGE('',*,*,#164,.T.);
#223=ORIENTED_EDGE('',*,*,#170,.T.);
#224=ORIENTED_EDGE('',*,*,#171,.F.);
#225=ORIENTED_EDGE('',*,*,#159,.F.);
#226=ORIENTED_EDGE('',*,*,#171,.T.);
#227=ORIENTED_EDGE('',*,*,#169,.T.);
#228=ORIENTED_EDGE('',*,*,#166,.T.);
#229=ORIENTED_EDGE('',*,*,#160,.T.);
#230=ORIENTED_EDGE('',*,*,#139,.T.);
#231=ORIENTED_EDGE('',*,*,#142,.T.);
#232=ORIENTED_EDGE('',*,*,#157,.T.);
#233=ORIENTED_EDGE('',*,*,#154,.T.);
#234=ORIENTED_EDGE('',*,*,#162,.F.);
#235=ORIENTED_EDGE('',*,*,#165,.F.);
#236=ORIENTED_EDGE('',*,*,#168,.F.);
#237=ORIENTED_EDGE('',*,*,#144,.T.);
#238=CYLINDRICAL_SURFACE('',#279,2.15);
#239=CYLINDRICAL_SURFACE('',#282,2.15);
#240=CYLINDRICAL_SURFACE('',#285,7.275);
#241=CYLINDRICAL_SURFACE('',#291,7.275);
#242=CYLINDRICAL_SURFACE('',#293,3.3);
#243=ADVANCED_FACE('',(#29),#238,.F.);
#244=ADVANCED_FACE('',(#30),#239,.F.);
#245=ADVANCED_FACE('',(#31),#240,.F.);
#246=ADVANCED_FACE('',(#32,#15),#21,.T.);
#247=ADVANCED_FACE('',(#33),#241,.F.);
#248=ADVANCED_FACE('',(#34),#242,.F.);
#249=ADVANCED_FACE('',(#35),#22,.T.);
#250=ADVANCED_FACE('',(#36,#16),#23,.F.);
#251=ADVANCED_FACE('',(#37),#24,.T.);
#252=ADVANCED_FACE('',(#38),#25,.T.);
#253=ADVANCED_FACE('',(#39),#26,.T.);
#254=ADVANCED_FACE('',(#40,#17,#18,#19),#27,.T.);
#255=ADVANCED_FACE('',(#41,#20),#28,.F.);
#256=CLOSED_SHELL('',(#243,#244,#245,#246,#247,#248,#249,#250,#251,#252,
#253,#254,#255));
#257=DERIVED_UNIT_ELEMENT(#260,1.);
#258=DERIVED_UNIT_ELEMENT(#447,-3.);
#259=DIMENSIONAL_EXPONENTS(1.,0.,0.,0.,0.,0.,0.);
#260=(
CONVERSION_BASED_UNIT('gram',#262)
MASS_UNIT()
NAMED_UNIT(#259)
);
#261=(
MASS_UNIT()
NAMED_UNIT(*)
SI_UNIT(.KILO.,.GRAM.)
);
#262=MASS_MEASURE_WITH_UNIT(MASS_MEASURE(0.001),#261);
#263=DERIVED_UNIT((#257,#258));
#264=MEASURE_REPRESENTATION_ITEM('density measure',
POSITIVE_RATIO_MEASURE(2.7),#263);
#265=PROPERTY_DEFINITION_REPRESENTATION(#270,#267);
#266=PROPERTY_DEFINITION_REPRESENTATION(#271,#268);
#267=REPRESENTATION('material name',(#269),#444);
#268=REPRESENTATION('density',(#264),#444);
#269=DESCRIPTIVE_REPRESENTATION_ITEM('Aluminum 6061-T6',
'Aluminum 6061-T6');
#270=PROPERTY_DEFINITION('material property','material name',#454);
#271=PROPERTY_DEFINITION('material property','density of part',#454);
#272=DATE_TIME_ROLE('creation_date');
#273=APPLIED_DATE_AND_TIME_ASSIGNMENT(#274,#272,(#454));
#274=DATE_AND_TIME(#275,#276);
#275=CALENDAR_DATE(2022,3,11);
#276=LOCAL_TIME(0,0,0.,#277);
#277=COORDINATED_UNIVERSAL_TIME_OFFSET(0,0,.BEHIND.);
#278=AXIS2_PLACEMENT_3D('placement',#373,#302,#303);
#279=AXIS2_PLACEMENT_3D('',#374,#304,#305);
#280=AXIS2_PLACEMENT_3D('',#376,#306,#307);
#281=AXIS2_PLACEMENT_3D('',#379,#309,#310);
#282=AXIS2_PLACEMENT_3D('',#380,#311,#312);
#283=AXIS2_PLACEMENT_3D('',#382,#313,#314);
#284=AXIS2_PLACEMENT_3D('',#385,#316,#317);
#285=AXIS2_PLACEMENT_3D('',#386,#318,#319);
#286=AXIS2_PLACEMENT_3D('',#391,#321,#322);
#287=AXIS2_PLACEMENT_3D('',#394,#324,#325);
#288=AXIS2_PLACEMENT_3D('',#395,#326,#327);
#289=AXIS2_PLACEMENT_3D('',#399,#329,#330);
#290=AXIS2_PLACEMENT_3D('',#402,#332,#333);
#291=AXIS2_PLACEMENT_3D('',#403,#334,#335);
#292=AXIS2_PLACEMENT_3D('',#407,#337,#338);
#293=AXIS2_PLACEMENT_3D('',#409,#340,#341);
#294=AXIS2_PLACEMENT_3D('',#412,#343,#344);
#295=AXIS2_PLACEMENT_3D('',#413,#345,#346);
#296=AXIS2_PLACEMENT_3D('',#423,#352,#353);
#297=AXIS2_PLACEMENT_3D('',#427,#356,#357);
#298=AXIS2_PLACEMENT_3D('',#433,#361,#362);
#299=AXIS2_PLACEMENT_3D('',#438,#366,#367);
#300=AXIS2_PLACEMENT_3D('',#440,#369,#370);
#301=AXIS2_PLACEMENT_3D('',#441,#371,#372);
#302=DIRECTION('axis',(0.,0.,1.));
#303=DIRECTION('refdir',(1.,0.,0.));
#304=DIRECTION('center_axis',(1.,0.,0.));
#305=DIRECTION('ref_axis',(0.,0.,-1.));
#306=DIRECTION('center_axis',(-1.,0.,0.));
#307=DIRECTION('ref_axis',(0.,0.,-1.));
#308=DIRECTION('',(-1.,0.,0.));
#309=DIRECTION('center_axis',(1.,0.,0.));
#310=DIRECTION('ref_axis',(0.,0.,-1.));
#311=DIRECTION('center_axis',(1.,0.,0.));
#312=DIRECTION('ref_axis',(0.,0.,-1.));
#313=DIRECTION('center_axis',(-1.,0.,0.));
#314=DIRECTION('ref_axis',(0.,0.,-1.));
#315=DIRECTION('',(-1.,0.,0.));
#316=DIRECTION('center_axis',(1.,0.,0.));
#317=DIRECTION('ref_axis',(0.,0.,-1.));
#318=DIRECTION('center_axis',(-1.,0.,0.));
#319=DIRECTION('ref_axis',(0.,-1.22464679914735E-16,-1.));
#320=DIRECTION('',(-1.,0.,0.));
#321=DIRECTION('center_axis',(-1.,0.,0.));
#322=DIRECTION('ref_axis',(0.,0.,1.));
#323=DIRECTION('',(1.,0.,0.));
#324=DIRECTION('center_axis',(1.,0.,0.));
#325=DIRECTION('ref_axis',(0.,0.,1.));
#326=DIRECTION('center_axis',(-1.,0.,0.));
#327=DIRECTION('ref_axis',(0.,0.,1.));
#328=DIRECTION('',(0.,1.90819582357449E-16,-1.));
#329=DIRECTION('center_axis',(-1.,0.,0.));
#330=DIRECTION('ref_axis',(0.,0.,1.));
#331=DIRECTION('',(0.,-2.08166817117217E-16,1.));
#332=DIRECTION('center_axis',(-1.,0.,0.));
#333=DIRECTION('ref_axis',(0.,0.,1.));
#334=DIRECTION('center_axis',(-1.,0.,0.));
#335=DIRECTION('ref_axis',(0.,0.,1.));
#336=DIRECTION('',(1.,0.,0.));
#337=DIRECTION('center_axis',(1.,0.,0.));
#338=DIRECTION('ref_axis',(0.,0.,1.));
#339=DIRECTION('',(-1.,0.,0.));
#340=DIRECTION('center_axis',(-1.,0.,0.));
#341=DIRECTION('ref_axis',(0.,0.,1.));
#342=DIRECTION('',(1.,0.,0.));
#343=DIRECTION('center_axis',(-1.,0.,0.));
#344=DIRECTION('ref_axis',(0.,0.,1.));
#345=DIRECTION('center_axis',(0.,-1.,-1.90819582357449E-16));
#346=DIRECTION('ref_axis',(0.,1.90819582357449E-16,-1.));
#347=DIRECTION('',(0.,1.90819582357449E-16,-1.));
#348=DIRECTION('',(1.,0.,0.));
#349=DIRECTION('',(0.,1.90819582357449E-16,-1.));
#350=DIRECTION('',(1.,0.,0.));
#351=DIRECTION('',(0.,1.90819582357449E-16,-1.));
#352=DIRECTION('center_axis',(1.,0.,0.));
#353=DIRECTION('ref_axis',(0.,0.,-1.));
#354=DIRECTION('',(0.,-2.08166817117217E-16,1.));
#355=DIRECTION('',(0.,1.,0.));
#356=DIRECTION('center_axis',(0.,0.,1.));
#357=DIRECTION('ref_axis',(0.,-1.,0.));
#358=DIRECTION('',(0.,-1.,0.));
#359=DIRECTION('',(0.,-1.,0.));
#360=DIRECTION('',(1.,0.,0.));
#361=DIRECTION('center_axis',(0.,1.,2.08166817117217E-16));
#362=DIRECTION('ref_axis',(0.,-2.08166817117217E-16,1.));
#363=DIRECTION('',(0.,-2.08166817117217E-16,1.));
#364=DIRECTION('',(0.,-2.08166817117217E-16,1.));
#365=DIRECTION('',(1.,0.,0.));
#366=DIRECTION('center_axis',(0.,0.,-1.));
#367=DIRECTION('ref_axis',(0.,1.,0.));
#368=DIRECTION('',(0.,1.,0.));
#369=DIRECTION('center_axis',(1.,0.,0.));
#370=DIRECTION('ref_axis',(0.,0.,-1.));
#371=DIRECTION('center_axis',(1.,0.,0.));
#372=DIRECTION('ref_axis',(0.,0.,-1.));
#373=CARTESIAN_POINT('',(0.,0.,0.));
#374=CARTESIAN_POINT('Origin',(-25.7131099154196,5.00000000000001,-28.5));
#375=CARTESIAN_POINT('',(9.,5.00000000000001,-26.35));
#376=CARTESIAN_POINT('Origin',(9.,5.00000000000001,-28.5));
#377=CARTESIAN_POINT('',(0.,5.00000000000001,-26.35));
#378=CARTESIAN_POINT('',(-25.7131099154196,5.00000000000001,-26.35));
#379=CARTESIAN_POINT('Origin',(0.,5.00000000000001,-28.5));
#380=CARTESIAN_POINT('Origin',(-25.7131099154196,5.,-3.5));
#381=CARTESIAN_POINT('',(9.,5.,-1.35));
#382=CARTESIAN_POINT('Origin',(9.,5.,-3.5));
#383=CARTESIAN_POINT('',(0.,5.,-1.35));
#384=CARTESIAN_POINT('',(-25.7131099154196,5.,-1.35));
#385=CARTESIAN_POINT('Origin',(0.,5.,-3.5));
#386=CARTESIAN_POINT('Origin',(3.19,5.,-16.));
#387=CARTESIAN_POINT('',(6.38,3.22882644047418E-15,-21.2844701721175));
#388=CARTESIAN_POINT('',(0.,3.22882644047418E-15,-21.2844701721175));
#389=CARTESIAN_POINT('',(3.19,3.22882644047418E-15,-21.2844701721175));
#390=CARTESIAN_POINT('',(6.38,10.,-21.2844701721175));
#391=CARTESIAN_POINT('Origin',(6.38,5.,-16.));
#392=CARTESIAN_POINT('',(0.,10.,-21.2844701721175));
#393=CARTESIAN_POINT('',(3.19,10.,-21.2844701721175));
#394=CARTESIAN_POINT('Origin',(0.,5.,-16.));
#395=CARTESIAN_POINT('Origin',(6.38,5.,-16.));
#396=CARTESIAN_POINT('',(6.38,1.21206565802645E-15,-10.7155298278825));
#397=CARTESIAN_POINT('',(6.38,1.66533453693773E-15,-8.));
#398=CARTESIAN_POINT('',(6.38,10.,-10.7155298278825));
#399=CARTESIAN_POINT('Origin',(6.38,5.,-16.));
#400=CARTESIAN_POINT('',(6.38,10.,-24.));
#401=CARTESIAN_POINT('',(6.38,5.,-19.3));
#402=CARTESIAN_POINT('Origin',(6.38,5.,-16.));
#403=CARTESIAN_POINT('Origin',(3.19,5.,-16.));
#404=CARTESIAN_POINT('',(0.,1.21206565802645E-15,-10.7155298278825));
#405=CARTESIAN_POINT('',(3.19,1.21206565802645E-15,-10.7155298278825));
#406=CARTESIAN_POINT('',(0.,10.,-10.7155298278825));
#407=CARTESIAN_POINT('Origin',(0.,5.,-16.));
#408=CARTESIAN_POINT('',(3.19,10.,-10.7155298278825));
#409=CARTESIAN_POINT('Origin',(34.7131099154196,5.,-16.));
#410=CARTESIAN_POINT('',(9.,5.,-19.3));
#411=CARTESIAN_POINT('',(34.7131099154196,5.,-19.3));
#412=CARTESIAN_POINT('Origin',(9.,5.,-16.));
#413=CARTESIAN_POINT('Origin',(0.,0.,0.));
#414=CARTESIAN_POINT('',(0.,6.10622663543836E-15,-32.));
#415=CARTESIAN_POINT('',(0.,0.,0.));
#416=CARTESIAN_POINT('',(9.,6.10622663543836E-15,-32.));
#417=CARTESIAN_POINT('',(0.,6.10622663543836E-15,-32.));
#418=CARTESIAN_POINT('',(9.,0.,0.));
#419=CARTESIAN_POINT('',(9.,0.,0.));
#420=CARTESIAN_POINT('',(0.,0.,0.));
#421=CARTESIAN_POINT('',(0.,0.,0.));
#422=CARTESIAN_POINT('',(0.,0.,0.));
#423=CARTESIAN_POINT('Origin',(0.,5.,-16.));
#424=CARTESIAN_POINT('',(0.,10.,-32.));
#425=CARTESIAN_POINT('',(0.,10.,-32.));
#426=CARTESIAN_POINT('',(0.,6.66133814775094E-15,-32.));
#427=CARTESIAN_POINT('Origin',(0.,10.,0.));
#428=CARTESIAN_POINT('',(0.,10.,0.));
#429=CARTESIAN_POINT('',(0.,10.,0.));
#430=CARTESIAN_POINT('',(9.,10.,0.));
#431=CARTESIAN_POINT('',(9.,10.,0.));
#432=CARTESIAN_POINT('',(0.,10.,0.));
#433=CARTESIAN_POINT('Origin',(0.,10.,-32.));
#434=CARTESIAN_POINT('',(0.,10.,-32.));
#435=CARTESIAN_POINT('',(9.,10.,-32.));
#436=CARTESIAN_POINT('',(9.,10.,-32.));
#437=CARTESIAN_POINT('',(0.,10.,-32.));
#438=CARTESIAN_POINT('Origin',(0.,6.10622663543836E-15,-32.));
#439=CARTESIAN_POINT('',(9.,6.66133814775094E-15,-32.));
#440=CARTESIAN_POINT('Origin',(9.,5.,-16.));
#441=CARTESIAN_POINT('Origin',(0.,5.,-16.));
#442=UNCERTAINTY_MEASURE_WITH_UNIT(LENGTH_MEASURE(0.01),#446,
'DISTANCE_ACCURACY_VALUE',
'Maximum model space distance between geometric entities at asserted c
onnectivities');
#443=UNCERTAINTY_MEASURE_WITH_UNIT(LENGTH_MEASURE(0.01),#446,
'DISTANCE_ACCURACY_VALUE',
'Maximum model space distance between geometric entities at asserted c
onnectivities');
#444=(
GEOMETRIC_REPRESENTATION_CONTEXT(3)
GLOBAL_UNCERTAINTY_ASSIGNED_CONTEXT((#442))
GLOBAL_UNIT_ASSIGNED_CONTEXT((#446,#448,#449))
REPRESENTATION_CONTEXT('','3D')
);
#445=(
GEOMETRIC_REPRESENTATION_CONTEXT(3)
GLOBAL_UNCERTAINTY_ASSIGNED_CONTEXT((#443))
GLOBAL_UNIT_ASSIGNED_CONTEXT((#446,#448,#449))
REPRESENTATION_CONTEXT('','3D')
);
#446=(
LENGTH_UNIT()
NAMED_UNIT(*)
SI_UNIT(.MILLI.,.METRE.)
);
#447=(
LENGTH_UNIT()
NAMED_UNIT(*)
SI_UNIT(.CENTI.,.METRE.)
);
#448=(
NAMED_UNIT(*)
PLANE_ANGLE_UNIT()
SI_UNIT($,.RADIAN.)
);
#449=(
NAMED_UNIT(*)
SI_UNIT($,.STERADIAN.)
SOLID_ANGLE_UNIT()
);
#450=SHAPE_DEFINITION_REPRESENTATION(#451,#452);
#451=PRODUCT_DEFINITION_SHAPE('',$,#454);
#452=SHAPE_REPRESENTATION('',(#278),#444);
#453=PRODUCT_DEFINITION_CONTEXT('part definition',#458,'design');
#454=PRODUCT_DEFINITION('Base position plate holder',
'Base position plate holder',#455,#453);
#455=PRODUCT_DEFINITION_FORMATION('',$,#460);
#456=PRODUCT_RELATED_PRODUCT_CATEGORY('Base position plate holder',
'Base position plate holder',(#460));
#457=APPLICATION_PROTOCOL_DEFINITION('international standard',
'automotive_design',2009,#458);
#458=APPLICATION_CONTEXT(
'Core Data for Automotive Mechanical Design Process');
#459=PRODUCT_CONTEXT('part definition',#458,'mechanical');
#460=PRODUCT('Base position plate holder','Base position plate holder',
$,(#459));
#461=PRESENTATION_STYLE_ASSIGNMENT((#462));
#462=SURFACE_STYLE_USAGE(.BOTH.,#465);
#463=SURFACE_STYLE_RENDERING_WITH_PROPERTIES($,#469,(#464));
#464=SURFACE_STYLE_TRANSPARENT(0.);
#465=SURFACE_SIDE_STYLE('',(#466,#463));
#466=SURFACE_STYLE_FILL_AREA(#467);
#467=FILL_AREA_STYLE('',(#468));
#468=FILL_AREA_STYLE_COLOUR('',#469);
#469=COLOUR_RGB('',0.996078431372549,0.996078431372549,1.);
ENDSEC;
END-ISO-10303-21;
