ISO-10303-21;
HEADER;
FILE_DESCRIPTION(('CATIA V5 STEP Exchange'),'2;1');

FILE_NAME('C:\\Users\\anton\\OneDrive\\MOGI\\Technique\\Prototypes\\Prototype_3\\V3\\STP\\V2\\Bouton.stp','2022-09-14T12:53:27+00:00',('none'),('none'),'CATIA Version 5 Release 20 GA (IN-10)','CATIA V5 STEP AP203','none');

FILE_SCHEMA(('CONFIG_CONTROL_DESIGN'));

ENDSEC;
/* file written by CATIA V5R20 */
DATA;
#5=PRODUCT('Bouton','','',(#2)) ;
#1=APPLICATION_CONTEXT('configuration controlled 3D design of mechanical parts and assemblies') ;
#14=PRODUCT_DEFINITION('',' ',#6,#3) ;
#16=SECURITY_CLASSIFICATION(' ',' ',#15) ;
#15=SECURITY_CLASSIFICATION_LEVEL('unclassified') ;
#47=CARTESIAN_POINT(' ',(0.,0.,0.)) ;
#52=CARTESIAN_POINT('Axis2P3D Location',(0.,0.,69.)) ;
#57=CARTESIAN_POINT('Line Origine',(-3.5,-4.28626379702E-016,69.)) ;
#61=CARTESIAN_POINT('Vertex',(-3.5,-4.28626379702E-016,64.)) ;
#63=CARTESIAN_POINT('Vertex',(-3.5,-4.28626379702E-016,74.)) ;
#66=CARTESIAN_POINT('Axis2P3D Location',(0.,0.,64.)) ;
#70=CARTESIAN_POINT('Vertex',(3.5,0.,64.)) ;
#73=CARTESIAN_POINT('Line Origine',(3.5,8.57252759403E-016,69.)) ;
#77=CARTESIAN_POINT('Vertex',(3.5,0.,74.)) ;
#80=CARTESIAN_POINT('Axis2P3D Location',(0.,0.,74.)) ;
#92=CARTESIAN_POINT('Axis2P3D Location',(0.,0.,64.)) ;
#97=CARTESIAN_POINT('Axis2P3D Location',(0.,0.,74.)) ;
#109=CARTESIAN_POINT('Axis2P3D Location',(0.,0.,64.)) ;
#114=CARTESIAN_POINT('Line Origine',(-5.5,-3.01930322834,64.)) ;
#118=CARTESIAN_POINT('Vertex',(-5.5,-16.7886064567,64.)) ;
#120=CARTESIAN_POINT('Vertex',(-5.5,10.75,64.)) ;
#123=CARTESIAN_POINT('Line Origine',(0.,10.75,64.)) ;
#127=CARTESIAN_POINT('Vertex',(5.5,10.75,64.)) ;
#130=CARTESIAN_POINT('Line Origine',(5.5,-2.99483342941,64.)) ;
#134=CARTESIAN_POINT('Vertex',(5.5,-16.7396668588,64.)) ;
#138=CARTESIAN_POINT('Control Point',(5.5,-16.739666859,64.)) ;
#139=CARTESIAN_POINT('Control Point',(4.42876351969,-16.752051715,64.)) ;
#140=CARTESIAN_POINT('Control Point',(3.36124700038,-16.762514479,64.)) ;
#141=CARTESIAN_POINT('Control Point',(2.29807485203,-16.7710891467,64.)) ;
#142=CARTESIAN_POINT('Control Point',(1.23962608367,-16.7778239446,64.)) ;
#143=CARTESIAN_POINT('Control Point',(0.185733365171,-16.7827658711,64.)) ;
#144=CARTESIAN_POINT('Vertex',(0.185733366648,-16.7827658711,64.)) ;
#148=CARTESIAN_POINT('Control Point',(-5.5,-16.7886064567,64.)) ;
#149=CARTESIAN_POINT('Control Point',(-4.35338539965,-16.7916668963,64.)) ;
#150=CARTESIAN_POINT('Control Point',(-3.21088147521,-16.7925603566,64.)) ;
#151=CARTESIAN_POINT('Control Point',(-2.07331211723,-16.7913335369,64.)) ;
#152=CARTESIAN_POINT('Control Point',(-0.941175264515,-16.7880501848,64.)) ;
#153=CARTESIAN_POINT('Control Point',(0.185733368124,-16.7827658711,64.)) ;
#167=CARTESIAN_POINT('Axis2P3D Location',(0.,0.,74.)) ;
#173=CARTESIAN_POINT('Control Point',(-5.5,-16.6140551838,74.)) ;
#174=CARTESIAN_POINT('Control Point',(-4.35355065175,-16.6171158836,74.)) ;
#175=CARTESIAN_POINT('Control Point',(-3.21121111775,-16.6180097274,74.)) ;
#176=CARTESIAN_POINT('Control Point',(-2.07380542884,-16.6167834139,74.)) ;
#177=CARTESIAN_POINT('Control Point',(-0.941831523636,-16.6135006938,74.)) ;
#178=CARTESIAN_POINT('Control Point',(0.184914872094,-16.6082171409,74.)) ;
#179=CARTESIAN_POINT('Vertex',(-5.5,-16.6140551838,74.)) ;
#181=CARTESIAN_POINT('Vertex',(0.184914870618,-16.6082171409,74.)) ;
#185=CARTESIAN_POINT('Control Point',(5.5,-16.5651045404,74.)) ;
#186=CARTESIAN_POINT('Control Point',(4.4285967658,-16.5774941575,74.)) ;
#187=CARTESIAN_POINT('Control Point',(3.36091437129,-16.5879606306,74.)) ;
#188=CARTESIAN_POINT('Control Point',(2.29757810243,-16.5965379756,74.)) ;
#189=CARTESIAN_POINT('Control Point',(1.23896742393,-16.6032744648,74.)) ;
#190=CARTESIAN_POINT('Control Point',(0.184914869142,-16.6082171409,74.)) ;
#191=CARTESIAN_POINT('Vertex',(5.5,-16.5651045402,74.)) ;
#194=CARTESIAN_POINT('Line Origine',(5.5,-2.9075522701,74.)) ;
#198=CARTESIAN_POINT('Vertex',(5.5,10.75,74.)) ;
#201=CARTESIAN_POINT('Line Origine',(0.,10.75,74.)) ;
#205=CARTESIAN_POINT('Vertex',(-5.5,10.75,74.)) ;
#208=CARTESIAN_POINT('Line Origine',(-5.5,-2.9320275919,74.)) ;
#225=CARTESIAN_POINT('Axis2P3D Location',(-5.5,-6.625,66.)) ;
#230=CARTESIAN_POINT('Line Origine',(-7.5,-6.625,66.)) ;
#234=CARTESIAN_POINT('Vertex',(-7.5,-16.7457262585,66.)) ;
#236=CARTESIAN_POINT('Vertex',(-7.5,10.75,66.)) ;
#239=CARTESIAN_POINT('Axis2P3D Location',(-5.5,10.75,66.)) ;
#245=CARTESIAN_POINT('Control Point',(-5.5,-16.7886064565,64.)) ;
#246=CARTESIAN_POINT('Control Point',(-6.08013304005,-16.7870580181,64.)) ;
#247=CARTESIAN_POINT('Control Point',(-6.6533297598,-16.7813168947,64.2123824804)) ;
#248=CARTESIAN_POINT('Control Point',(-7.19420541924,-16.7714245318,64.6227106162)) ;
#249=CARTESIAN_POINT('Control Point',(-7.5,-16.7577002914,65.3140177763)) ;
#250=CARTESIAN_POINT('Control Point',(-7.5,-16.7457262585,66.)) ;
#259=CARTESIAN_POINT('Axis2P3D Location',(7.5,10.75,64.)) ;
#264=CARTESIAN_POINT('Line Origine',(-7.5,10.75,69.)) ;
#268=CARTESIAN_POINT('Vertex',(-7.5,10.75,72.)) ;
#271=CARTESIAN_POINT('Axis2P3D Location',(-5.5,10.75,72.)) ;
#276=CARTESIAN_POINT('Axis2P3D Location',(5.5,10.75,72.)) ;
#280=CARTESIAN_POINT('Vertex',(7.5,10.75,72.)) ;
#283=CARTESIAN_POINT('Line Origine',(7.5,10.75,69.)) ;
#287=CARTESIAN_POINT('Vertex',(7.5,10.75,66.)) ;
#290=CARTESIAN_POINT('Axis2P3D Location',(5.5,10.75,66.)) ;
#306=CARTESIAN_POINT('Axis2P3D Location',(5.5,-6.625,66.)) ;
#311=CARTESIAN_POINT('Line Origine',(7.5,-6.625,66.)) ;
#315=CARTESIAN_POINT('Vertex',(7.5,-16.6790029344,66.)) ;
#319=CARTESIAN_POINT('Control Point',(5.5,-16.7396668588,64.)) ;
#320=CARTESIAN_POINT('Control Point',(6.07987974216,-16.7329627116,64.)) ;
#321=CARTESIAN_POINT('Control Point',(6.65279534793,-16.7221312153,64.2122525875)) ;
#322=CARTESIAN_POINT('Control Point',(7.19377187029,-16.7074401208,64.6220074973)) ;
#323=CARTESIAN_POINT('Control Point',(7.5,-16.6909849039,65.3136225699)) ;
#324=CARTESIAN_POINT('Control Point',(7.5,-16.6790029344,66.)) ;
#333=CARTESIAN_POINT('Axis2P3D Location',(-5.5,-6.625,72.)) ;
#338=CARTESIAN_POINT('Line Origine',(-7.5,-6.625,72.)) ;
#342=CARTESIAN_POINT('Vertex',(-7.5,-16.6409943942,72.)) ;
#346=CARTESIAN_POINT('Control Point',(-5.5,-16.6140551836,74.)) ;
#347=CARTESIAN_POINT('Control Point',(-6.08005926307,-16.6125065873,74.)) ;
#348=CARTESIAN_POINT('Control Point',(-6.65318148167,-16.6141788517,73.7876762901)) ;
#349=CARTESIAN_POINT('Control Point',(-7.19417655228,-16.6186089367,73.3774229381)) ;
#350=CARTESIAN_POINT('Control Point',(-7.5,-16.6290201361,72.6859951265)) ;
#351=CARTESIAN_POINT('Control Point',(-7.5,-16.6409943942,72.)) ;
#360=CARTESIAN_POINT('Axis2P3D Location',(5.5,-6.625,72.)) ;
#365=CARTESIAN_POINT('Line Origine',(7.5,-6.625,72.)) ;
#369=CARTESIAN_POINT('Vertex',(7.5,-16.5742619935,72.)) ;
#373=CARTESIAN_POINT('Control Point',(5.5,-16.5651045402,74.)) ;
#374=CARTESIAN_POINT('Control Point',(6.0797403071,-16.5584004719,74.)) ;
#375=CARTESIAN_POINT('Control Point',(6.65256643934,-16.5549770056,73.7878732216)) ;
#376=CARTESIAN_POINT('Control Point',(7.1938144209,-16.5545862289,73.3781342368)) ;
#377=CARTESIAN_POINT('Control Point',(7.5,-16.5622812057,72.6863097214)) ;
#378=CARTESIAN_POINT('Control Point',(7.5,-16.5742619935,72.)) ;
#387=CARTESIAN_POINT('Axis2P3D Location',(-7.5,10.75,64.)) ;
#393=CARTESIAN_POINT('Control Point',(-7.5,-16.6409943942,72.)) ;
#394=CARTESIAN_POINT('Control Point',(-7.5,-16.6619407671,70.8)) ;
#395=CARTESIAN_POINT('Control Point',(-7.5,-16.68288714,69.6)) ;
#396=CARTESIAN_POINT('Control Point',(-7.5,-16.7038335129,68.4)) ;
#397=CARTESIAN_POINT('Control Point',(-7.5,-16.7247798857,67.2)) ;
#398=CARTESIAN_POINT('Control Point',(-7.5,-16.7457262585,66.)) ;
#407=CARTESIAN_POINT('Axis2P3D Location',(7.5,-24.,64.)) ;
#413=CARTESIAN_POINT('Control Point',(7.5,-16.5742619935,72.)) ;
#414=CARTESIAN_POINT('Control Point',(7.5,-16.595210182,70.8)) ;
#415=CARTESIAN_POINT('Control Point',(7.5,-16.6161583703,69.6)) ;
#416=CARTESIAN_POINT('Control Point',(7.5,-16.6371065585,68.4)) ;
#417=CARTESIAN_POINT('Control Point',(7.5,-16.6580547465,67.2)) ;
#418=CARTESIAN_POINT('Control Point',(7.5,-16.6790029344,66.)) ;
#428=CARTESIAN_POINT('Control Point',(-7.55035553935,-16.604111667,74.0975791584)) ;
#429=CARTESIAN_POINT('Control Point',(-7.55131155351,-16.7820660898,63.9024301069)) ;
#430=CARTESIAN_POINT('Control Point',(-5.9792092415,-16.61255183,74.0975791584)) ;
#431=CARTESIAN_POINT('Control Point',(-5.97979525255,-16.7905082406,63.9024301069)) ;
#432=CARTESIAN_POINT('Control Point',(-4.41682233127,-16.6168614423,74.0975791584)) ;
#433=CARTESIAN_POINT('Control Point',(-4.41704316639,-16.7948188525,63.9024301069)) ;
#434=CARTESIAN_POINT('Control Point',(-2.8678339705,-16.6171473052,74.0975791584)) ;
#435=CARTESIAN_POINT('Control Point',(-2.86769613155,-16.7951047678,63.9024301069)) ;
#436=CARTESIAN_POINT('Control Point',(-1.33421207099,-16.6136373801,74.0975791584)) ;
#437=CARTESIAN_POINT('Control Point',(-1.33372261078,-16.7915940301,63.9024301069)) ;
#438=CARTESIAN_POINT('Control Point',(0.184906886016,-16.606513909,74.0975791584)) ;
#439=CARTESIAN_POINT('Control Point',(0.185741354919,-16.7844689412,63.9024301069)) ;
#441=CARTESIAN_POINT('Control Point',(0.184914870618,-16.6082171409,74.)) ;
#442=CARTESIAN_POINT('Control Point',(0.185733366648,-16.7827658711,64.)) ;
#454=CARTESIAN_POINT('Control Point',(7.55001740809,-16.5369326589,74.097611265)) ;
#455=CARTESIAN_POINT('Control Point',(7.55255526548,-16.7148724558,63.902410466)) ;
#456=CARTESIAN_POINT('Control Point',(6.05464022724,-16.5582600092,74.097611265)) ;
#457=CARTESIAN_POINT('Control Point',(6.05682642671,-16.7362048215,63.902410466)) ;
#458=CARTESIAN_POINT('Control Point',(4.56776036508,-16.5757713232,74.097611265)) ;
#459=CARTESIAN_POINT('Control Point',(4.56959948934,-16.7537202161,63.902410466)) ;
#460=CARTESIAN_POINT('Control Point',(3.09317458039,-16.5895329616,74.097611265)) ;
#461=CARTESIAN_POINT('Control Point',(3.09467257012,-16.7674850264,63.902410466)) ;
#462=CARTESIAN_POINT('Control Point',(1.63247196615,-16.5997254088,74.097611265)) ;
#463=CARTESIAN_POINT('Control Point',(1.63363519897,-16.7776798026,63.902410466)) ;
#464=CARTESIAN_POINT('Control Point',(0.184906878961,-16.6065133486,74.097611265)) ;
#465=CARTESIAN_POINT('Control Point',(0.185741352098,-16.784469284,63.902410466)) ;
#53=DIRECTION('Axis2P3D Direction',(0.,0.,-1.)) ;
#54=DIRECTION('Axis2P3D XDirection',(1.,0.,0.)) ;
#58=DIRECTION('Vector Direction',(0.,0.,-1.)) ;
#67=DIRECTION('Axis2P3D Direction',(0.,0.,-1.)) ;
#74=DIRECTION('Vector Direction',(0.,0.,-1.)) ;
#81=DIRECTION('Axis2P3D Direction',(0.,0.,-1.)) ;
#93=DIRECTION('Axis2P3D Direction',(0.,0.,-1.)) ;
#98=DIRECTION('Axis2P3D Direction',(0.,0.,-1.)) ;
#110=DIRECTION('Axis2P3D Direction',(0.,0.,-1.)) ;
#111=DIRECTION('Axis2P3D XDirection',(1.,0.,0.)) ;
#115=DIRECTION('Vector Direction',(0.,-1.,0.)) ;
#124=DIRECTION('Vector Direction',(-1.,0.,0.)) ;
#131=DIRECTION('Vector Direction',(0.,-1.,0.)) ;
#168=DIRECTION('Axis2P3D Direction',(0.,0.,-1.)) ;
#169=DIRECTION('Axis2P3D XDirection',(1.,0.,0.)) ;
#195=DIRECTION('Vector Direction',(0.,1.,0.)) ;
#202=DIRECTION('Vector Direction',(-1.,0.,0.)) ;
#209=DIRECTION('Vector Direction',(0.,-1.,0.)) ;
#226=DIRECTION('Axis2P3D Direction',(0.,-1.,0.)) ;
#227=DIRECTION('Axis2P3D XDirection',(-1.,0.,0.)) ;
#231=DIRECTION('Vector Direction',(0.,-1.,0.)) ;
#240=DIRECTION('Axis2P3D Direction',(0.,-1.,0.)) ;
#260=DIRECTION('Axis2P3D Direction',(-0.,1.,0.)) ;
#261=DIRECTION('Axis2P3D XDirection',(-1.,-0.,0.)) ;
#265=DIRECTION('Vector Direction',(0.,0.,1.)) ;
#272=DIRECTION('Axis2P3D Direction',(-0.,1.,0.)) ;
#277=DIRECTION('Axis2P3D Direction',(-0.,1.,0.)) ;
#284=DIRECTION('Vector Direction',(0.,0.,1.)) ;
#291=DIRECTION('Axis2P3D Direction',(-0.,1.,0.)) ;
#307=DIRECTION('Axis2P3D Direction',(0.,-1.,0.)) ;
#308=DIRECTION('Axis2P3D XDirection',(-1.83697019872E-016,-0.,-1.)) ;
#312=DIRECTION('Vector Direction',(0.,-1.,0.)) ;
#334=DIRECTION('Axis2P3D Direction',(0.,-1.,0.)) ;
#335=DIRECTION('Axis2P3D XDirection',(0.,0.,1.)) ;
#339=DIRECTION('Vector Direction',(0.,-1.,0.)) ;
#361=DIRECTION('Axis2P3D Direction',(0.,1.,0.)) ;
#362=DIRECTION('Axis2P3D XDirection',(0.,0.,1.)) ;
#366=DIRECTION('Vector Direction',(0.,1.,0.)) ;
#388=DIRECTION('Axis2P3D Direction',(-1.,0.,0.)) ;
#389=DIRECTION('Axis2P3D XDirection',(0.,-1.,0.)) ;
#408=DIRECTION('Axis2P3D Direction',(1.,0.,0.)) ;
#409=DIRECTION('Axis2P3D XDirection',(0.,1.,0.)) ;
#48=AXIS2_PLACEMENT_3D(' ',#47,$,$) ;
#55=AXIS2_PLACEMENT_3D('Cylinder Axis2P3D',#52,#53,#54) ;
#68=AXIS2_PLACEMENT_3D('Circle Axis2P3D',#66,#67,$) ;
#82=AXIS2_PLACEMENT_3D('Circle Axis2P3D',#80,#81,$) ;
#94=AXIS2_PLACEMENT_3D('Circle Axis2P3D',#92,#93,$) ;
#99=AXIS2_PLACEMENT_3D('Circle Axis2P3D',#97,#98,$) ;
#112=AXIS2_PLACEMENT_3D('Plane Axis2P3D',#109,#110,#111) ;
#170=AXIS2_PLACEMENT_3D('Plane Axis2P3D',#167,#168,#169) ;
#228=AXIS2_PLACEMENT_3D('Cylinder Axis2P3D',#225,#226,#227) ;
#241=AXIS2_PLACEMENT_3D('Circle Axis2P3D',#239,#240,$) ;
#262=AXIS2_PLACEMENT_3D('Plane Axis2P3D',#259,#260,#261) ;
#273=AXIS2_PLACEMENT_3D('Circle Axis2P3D',#271,#272,$) ;
#278=AXIS2_PLACEMENT_3D('Circle Axis2P3D',#276,#277,$) ;
#292=AXIS2_PLACEMENT_3D('Circle Axis2P3D',#290,#291,$) ;
#309=AXIS2_PLACEMENT_3D('Cylinder Axis2P3D',#306,#307,#308) ;
#336=AXIS2_PLACEMENT_3D('Cylinder Axis2P3D',#333,#334,#335) ;
#363=AXIS2_PLACEMENT_3D('Cylinder Axis2P3D',#360,#361,#362) ;
#390=AXIS2_PLACEMENT_3D('Plane Axis2P3D',#387,#388,#389) ;
#410=AXIS2_PLACEMENT_3D('Plane Axis2P3D',#407,#408,#409) ;
#40=PRODUCT_DEFINITION_SHAPE(' ',' ',#14) ;
#31=APPROVAL_PERSON_ORGANIZATION(#25,#21,#19) ;
#25=PERSON_AND_ORGANIZATION(#22,#23) ;
#22=PERSON(' ',' ',' ',$,$,$) ;
#23=ORGANIZATION(' ',' ',' ') ;
#21=APPROVAL(#20,' ') ;
#20=APPROVAL_STATUS('not_yet_approved') ;
#19=APPROVAL_ROLE('APPROVER') ;
#13=DATE_AND_TIME(#11,#12) ;
#12=LOCAL_TIME(14,53,27.,#10) ;
#10=COORDINATED_UNIVERSAL_TIME_OFFSET(0,0,.AHEAD.) ;
#86=ORIENTED_EDGE('',*,*,#65,.F.) ;
#87=ORIENTED_EDGE('',*,*,#72,.T.) ;
#88=ORIENTED_EDGE('',*,*,#79,.T.) ;
#89=ORIENTED_EDGE('',*,*,#84,.F.) ;
#103=ORIENTED_EDGE('',*,*,#79,.F.) ;
#104=ORIENTED_EDGE('',*,*,#96,.T.) ;
#105=ORIENTED_EDGE('',*,*,#65,.T.) ;
#106=ORIENTED_EDGE('',*,*,#101,.F.) ;
#156=ORIENTED_EDGE('',*,*,#122,.T.) ;
#157=ORIENTED_EDGE('',*,*,#129,.T.) ;
#158=ORIENTED_EDGE('',*,*,#136,.T.) ;
#159=ORIENTED_EDGE('',*,*,#146,.T.) ;
#160=ORIENTED_EDGE('',*,*,#154,.F.) ;
#163=ORIENTED_EDGE('',*,*,#72,.F.) ;
#164=ORIENTED_EDGE('',*,*,#96,.F.) ;
#214=ORIENTED_EDGE('',*,*,#183,.T.) ;
#215=ORIENTED_EDGE('',*,*,#193,.F.) ;
#216=ORIENTED_EDGE('',*,*,#200,.F.) ;
#217=ORIENTED_EDGE('',*,*,#207,.F.) ;
#218=ORIENTED_EDGE('',*,*,#212,.F.) ;
#221=ORIENTED_EDGE('',*,*,#101,.T.) ;
#222=ORIENTED_EDGE('',*,*,#84,.T.) ;
#253=ORIENTED_EDGE('',*,*,#238,.T.) ;
#254=ORIENTED_EDGE('',*,*,#243,.T.) ;
#255=ORIENTED_EDGE('',*,*,#122,.F.) ;
#256=ORIENTED_EDGE('',*,*,#251,.T.) ;
#296=ORIENTED_EDGE('',*,*,#270,.T.) ;
#297=ORIENTED_EDGE('',*,*,#275,.F.) ;
#298=ORIENTED_EDGE('',*,*,#207,.T.) ;
#299=ORIENTED_EDGE('',*,*,#282,.F.) ;
#300=ORIENTED_EDGE('',*,*,#289,.F.) ;
#301=ORIENTED_EDGE('',*,*,#294,.F.) ;
#302=ORIENTED_EDGE('',*,*,#129,.F.) ;
#303=ORIENTED_EDGE('',*,*,#243,.F.) ;
#327=ORIENTED_EDGE('',*,*,#136,.F.) ;
#328=ORIENTED_EDGE('',*,*,#294,.T.) ;
#329=ORIENTED_EDGE('',*,*,#317,.T.) ;
#330=ORIENTED_EDGE('',*,*,#325,.F.) ;
#354=ORIENTED_EDGE('',*,*,#212,.T.) ;
#355=ORIENTED_EDGE('',*,*,#275,.T.) ;
#356=ORIENTED_EDGE('',*,*,#344,.F.) ;
#357=ORIENTED_EDGE('',*,*,#352,.F.) ;
#381=ORIENTED_EDGE('',*,*,#371,.F.) ;
#382=ORIENTED_EDGE('',*,*,#282,.T.) ;
#383=ORIENTED_EDGE('',*,*,#200,.T.) ;
#384=ORIENTED_EDGE('',*,*,#379,.T.) ;
#401=ORIENTED_EDGE('',*,*,#344,.T.) ;
#402=ORIENTED_EDGE('',*,*,#270,.F.) ;
#403=ORIENTED_EDGE('',*,*,#238,.F.) ;
#404=ORIENTED_EDGE('',*,*,#399,.F.) ;
#421=ORIENTED_EDGE('',*,*,#317,.F.) ;
#422=ORIENTED_EDGE('',*,*,#289,.T.) ;
#423=ORIENTED_EDGE('',*,*,#371,.T.) ;
#424=ORIENTED_EDGE('',*,*,#419,.T.) ;
#445=ORIENTED_EDGE('',*,*,#183,.F.) ;
#446=ORIENTED_EDGE('',*,*,#352,.T.) ;
#447=ORIENTED_EDGE('',*,*,#399,.T.) ;
#448=ORIENTED_EDGE('',*,*,#251,.F.) ;
#449=ORIENTED_EDGE('',*,*,#154,.T.) ;
#450=ORIENTED_EDGE('',*,*,#443,.F.) ;
#467=ORIENTED_EDGE('',*,*,#443,.T.) ;
#468=ORIENTED_EDGE('',*,*,#146,.F.) ;
#469=ORIENTED_EDGE('',*,*,#325,.T.) ;
#470=ORIENTED_EDGE('',*,*,#419,.F.) ;
#471=ORIENTED_EDGE('',*,*,#379,.F.) ;
#472=ORIENTED_EDGE('',*,*,#193,.T.) ;
#165=FACE_BOUND('',#162,.T.) ;
#223=FACE_BOUND('',#220,.T.) ;
#51=CLOSED_SHELL('Closed Shell',(#91,#108,#166,#224,#258,#305,#332,#359,#386,#406,#426,#452,#474)) ;
#59=VECTOR('Line Direction',#58,1.) ;
#75=VECTOR('Line Direction',#74,1.) ;
#116=VECTOR('Line Direction',#115,1.) ;
#125=VECTOR('Line Direction',#124,1.) ;
#132=VECTOR('Line Direction',#131,1.) ;
#196=VECTOR('Line Direction',#195,1.) ;
#203=VECTOR('Line Direction',#202,1.) ;
#210=VECTOR('Line Direction',#209,1.) ;
#232=VECTOR('Line Direction',#231,1.) ;
#266=VECTOR('Line Direction',#265,1.) ;
#285=VECTOR('Line Direction',#284,1.) ;
#313=VECTOR('Line Direction',#312,1.) ;
#340=VECTOR('Line Direction',#339,1.) ;
#367=VECTOR('Line Direction',#366,1.) ;
#476=ADVANCED_BREP_SHAPE_REPRESENTATION('NONE',(#475),#46) ;
#49=SHAPE_REPRESENTATION(' ',(#48),#46) ;
#91=ADVANCED_FACE('Corps principal',(#90),#56,.F.) ;
#108=ADVANCED_FACE('Corps principal',(#107),#56,.F.) ;
#166=ADVANCED_FACE('Corps principal',(#161,#165),#113,.T.) ;
#224=ADVANCED_FACE('Corps principal',(#219,#223),#171,.F.) ;
#258=ADVANCED_FACE('Corps principal',(#257),#229,.T.) ;
#305=ADVANCED_FACE('Corps principal',(#304),#263,.T.) ;
#332=ADVANCED_FACE('Corps principal',(#331),#310,.T.) ;
#359=ADVANCED_FACE('Corps principal',(#358),#337,.T.) ;
#386=ADVANCED_FACE('Corps principal',(#385),#364,.T.) ;
#406=ADVANCED_FACE('Corps principal',(#405),#391,.T.) ;
#426=ADVANCED_FACE('Corps principal',(#425),#411,.T.) ;
#452=ADVANCED_FACE('Corps principal',(#451),#427,.F.) ;
#474=ADVANCED_FACE('Corps principal',(#473),#453,.T.) ;
#4=APPLICATION_PROTOCOL_DEFINITION('international standard','config_control_design',1994,#1) ;
#32=APPROVAL_DATE_TIME(#13,#21) ;
#137=B_SPLINE_CURVE_WITH_KNOTS('',5,(#138,#139,#140,#141,#142,#143),.UNSPECIFIED.,.F.,.U.,(6,6),(0.,8.96729757796),.UNSPECIFIED.) ;
#147=B_SPLINE_CURVE_WITH_KNOTS('',5,(#148,#149,#150,#151,#152,#153),.UNSPECIFIED.,.F.,.U.,(6,6),(0.,9.58857089976),.UNSPECIFIED.) ;
#172=B_SPLINE_CURVE_WITH_KNOTS('',5,(#173,#174,#175,#176,#177,#178),.UNSPECIFIED.,.F.,.U.,(6,6),(0.,9.58858870985),.UNSPECIFIED.) ;
#184=B_SPLINE_CURVE_WITH_KNOTS('',5,(#185,#186,#187,#188,#189,#190),.UNSPECIFIED.,.F.,.U.,(6,6),(0.,8.96996561492),.UNSPECIFIED.) ;
#244=B_SPLINE_CURVE_WITH_KNOTS('',5,(#245,#246,#247,#248,#249,#250),.UNSPECIFIED.,.F.,.U.,(6,6),(0.,4.85136573715),.UNSPECIFIED.) ;
#318=B_SPLINE_CURVE_WITH_KNOTS('',5,(#319,#320,#321,#322,#323,#324),.UNSPECIFIED.,.F.,.U.,(6,6),(0.,4.85416087202),.UNSPECIFIED.) ;
#345=B_SPLINE_CURVE_WITH_KNOTS('',5,(#346,#347,#348,#349,#350,#351),.UNSPECIFIED.,.F.,.U.,(6,6),(0.,4.85145698709),.UNSPECIFIED.) ;
#372=B_SPLINE_CURVE_WITH_KNOTS('',5,(#373,#374,#375,#376,#377,#378),.UNSPECIFIED.,.F.,.U.,(6,6),(0.,4.85368202585),.UNSPECIFIED.) ;
#392=B_SPLINE_CURVE_WITH_KNOTS('',5,(#393,#394,#395,#396,#397,#398),.UNSPECIFIED.,.F.,.U.,(6,6),(0.,8.486573971),.UNSPECIFIED.) ;
#412=B_SPLINE_CURVE_WITH_KNOTS('',5,(#413,#414,#415,#416,#417,#418),.UNSPECIFIED.,.F.,.U.,(6,6),(0.,8.48657428217),.UNSPECIFIED.) ;
#440=B_SPLINE_CURVE_WITH_KNOTS('',1,(#441,#442),.UNSPECIFIED.,.F.,.U.,(2,2),(23.9896537405,33.9911770209),.UNSPECIFIED.) ;
#427=B_SPLINE_SURFACE_WITH_KNOTS('',5,1,((#428,#429),(#430,#431),(#432,#433),(#434,#435),(#436,#437),(#438,#439)),.UNSPECIFIED.,.F.,.F.,.U.,(6,6),(2,2),(1005.82169308,1016.28261218),(23.892059718,34.0887617766),.UNSPECIFIED.) ;
#453=B_SPLINE_SURFACE_WITH_KNOTS('',5,1,((#454,#455),(#456,#457),(#458,#459),(#460,#461),(#462,#463),(#464,#465)),.UNSPECIFIED.,.F.,.F.,.U.,(6,6),(2,2),(1006.31442555,1016.28261218),(23.8920276065,34.0887814205),.UNSPECIFIED.) ;
#475=MANIFOLD_SOLID_BREP('Corps principal',#51) ;
#11=CALENDAR_DATE(2022,14,9) ;
#30=CC_DESIGN_APPROVAL(#21,(#16,#6,#14)) ;
#18=CC_DESIGN_DATE_AND_TIME_ASSIGNMENT(#13,#17,(#16)) ;
#29=CC_DESIGN_DATE_AND_TIME_ASSIGNMENT(#13,#28,(#14)) ;
#17=DATE_TIME_ROLE('classification_date') ;
#28=DATE_TIME_ROLE('creation_date') ;
#27=CC_DESIGN_PERSON_AND_ORGANIZATION_ASSIGNMENT(#25,#26,(#16)) ;
#33=CC_DESIGN_PERSON_AND_ORGANIZATION_ASSIGNMENT(#25,#34,(#6)) ;
#35=CC_DESIGN_PERSON_AND_ORGANIZATION_ASSIGNMENT(#25,#36,(#6,#14)) ;
#37=CC_DESIGN_PERSON_AND_ORGANIZATION_ASSIGNMENT(#25,#38,(#5)) ;
#26=PERSON_AND_ORGANIZATION_ROLE('classification_officer') ;
#34=PERSON_AND_ORGANIZATION_ROLE('design_supplier') ;
#36=PERSON_AND_ORGANIZATION_ROLE('creator') ;
#38=PERSON_AND_ORGANIZATION_ROLE('design_owner') ;
#39=CC_DESIGN_SECURITY_CLASSIFICATION(#16,(#6)) ;
#69=CIRCLE('generated circle',#68,3.5) ;
#83=CIRCLE('generated circle',#82,3.5) ;
#95=CIRCLE('generated circle',#94,3.5) ;
#100=CIRCLE('generated circle',#99,3.5) ;
#242=CIRCLE('generated circle',#241,2.) ;
#274=CIRCLE('generated circle',#273,2.) ;
#279=CIRCLE('generated circle',#278,2.) ;
#293=CIRCLE('generated circle',#292,2.) ;
#477=SHAPE_REPRESENTATION_RELATIONSHIP(' ',' ',#49,#476) ;
#56=CYLINDRICAL_SURFACE('generated cylinder',#55,3.5) ;
#229=CYLINDRICAL_SURFACE('generated cylinder',#228,2.) ;
#310=CYLINDRICAL_SURFACE('generated cylinder',#309,2.) ;
#337=CYLINDRICAL_SURFACE('generated cylinder',#336,2.) ;
#364=CYLINDRICAL_SURFACE('generated cylinder',#363,2.) ;
#3=DESIGN_CONTEXT(' ',#1,'design') ;
#65=EDGE_CURVE('',#62,#64,#60,.F.) ;
#72=EDGE_CURVE('',#62,#71,#69,.T.) ;
#79=EDGE_CURVE('',#71,#78,#76,.F.) ;
#84=EDGE_CURVE('',#64,#78,#83,.T.) ;
#96=EDGE_CURVE('',#71,#62,#95,.T.) ;
#101=EDGE_CURVE('',#78,#64,#100,.T.) ;
#122=EDGE_CURVE('',#119,#121,#117,.F.) ;
#129=EDGE_CURVE('',#121,#128,#126,.F.) ;
#136=EDGE_CURVE('',#128,#135,#133,.T.) ;
#146=EDGE_CURVE('',#135,#145,#137,.T.) ;
#154=EDGE_CURVE('',#119,#145,#147,.T.) ;
#183=EDGE_CURVE('',#180,#182,#172,.T.) ;
#193=EDGE_CURVE('',#192,#182,#184,.T.) ;
#200=EDGE_CURVE('',#199,#192,#197,.F.) ;
#207=EDGE_CURVE('',#206,#199,#204,.F.) ;
#212=EDGE_CURVE('',#180,#206,#211,.F.) ;
#238=EDGE_CURVE('',#235,#237,#233,.F.) ;
#243=EDGE_CURVE('',#237,#121,#242,.T.) ;
#251=EDGE_CURVE('',#119,#235,#244,.T.) ;
#270=EDGE_CURVE('',#237,#269,#267,.T.) ;
#275=EDGE_CURVE('',#206,#269,#274,.F.) ;
#282=EDGE_CURVE('',#281,#199,#279,.F.) ;
#289=EDGE_CURVE('',#288,#281,#286,.T.) ;
#294=EDGE_CURVE('',#128,#288,#293,.F.) ;
#317=EDGE_CURVE('',#288,#316,#314,.T.) ;
#325=EDGE_CURVE('',#135,#316,#318,.T.) ;
#344=EDGE_CURVE('',#343,#269,#341,.F.) ;
#352=EDGE_CURVE('',#180,#343,#345,.T.) ;
#371=EDGE_CURVE('',#281,#370,#368,.F.) ;
#379=EDGE_CURVE('',#192,#370,#372,.T.) ;
#399=EDGE_CURVE('',#343,#235,#392,.T.) ;
#419=EDGE_CURVE('',#370,#316,#412,.T.) ;
#443=EDGE_CURVE('',#182,#145,#440,.T.) ;
#85=EDGE_LOOP('',(#86,#87,#88,#89)) ;
#102=EDGE_LOOP('',(#103,#104,#105,#106)) ;
#155=EDGE_LOOP('',(#156,#157,#158,#159,#160)) ;
#162=EDGE_LOOP('',(#163,#164)) ;
#213=EDGE_LOOP('',(#214,#215,#216,#217,#218)) ;
#220=EDGE_LOOP('',(#221,#222)) ;
#252=EDGE_LOOP('',(#253,#254,#255,#256)) ;
#295=EDGE_LOOP('',(#296,#297,#298,#299,#300,#301,#302,#303)) ;
#326=EDGE_LOOP('',(#327,#328,#329,#330)) ;
#353=EDGE_LOOP('',(#354,#355,#356,#357)) ;
#380=EDGE_LOOP('',(#381,#382,#383,#384)) ;
#400=EDGE_LOOP('',(#401,#402,#403,#404)) ;
#420=EDGE_LOOP('',(#421,#422,#423,#424)) ;
#444=EDGE_LOOP('',(#445,#446,#447,#448,#449,#450)) ;
#466=EDGE_LOOP('',(#467,#468,#469,#470,#471,#472)) ;
#90=FACE_OUTER_BOUND('',#85,.T.) ;
#107=FACE_OUTER_BOUND('',#102,.T.) ;
#161=FACE_OUTER_BOUND('',#155,.T.) ;
#219=FACE_OUTER_BOUND('',#213,.T.) ;
#257=FACE_OUTER_BOUND('',#252,.T.) ;
#304=FACE_OUTER_BOUND('',#295,.T.) ;
#331=FACE_OUTER_BOUND('',#326,.T.) ;
#358=FACE_OUTER_BOUND('',#353,.T.) ;
#385=FACE_OUTER_BOUND('',#380,.T.) ;
#405=FACE_OUTER_BOUND('',#400,.T.) ;
#425=FACE_OUTER_BOUND('',#420,.T.) ;
#451=FACE_OUTER_BOUND('',#444,.T.) ;
#473=FACE_OUTER_BOUND('',#466,.T.) ;
#45=UNCERTAINTY_MEASURE_WITH_UNIT(LENGTH_MEASURE(0.005),#41,'distance_accuracy_value','CONFUSED CURVE UNCERTAINTY') ;
#60=LINE('Line',#57,#59) ;
#76=LINE('Line',#73,#75) ;
#117=LINE('Line',#114,#116) ;
#126=LINE('Line',#123,#125) ;
#133=LINE('Line',#130,#132) ;
#197=LINE('Line',#194,#196) ;
#204=LINE('Line',#201,#203) ;
#211=LINE('Line',#208,#210) ;
#233=LINE('Line',#230,#232) ;
#267=LINE('Line',#264,#266) ;
#286=LINE('Line',#283,#285) ;
#314=LINE('Line',#311,#313) ;
#341=LINE('Line',#338,#340) ;
#368=LINE('Line',#365,#367) ;
#2=MECHANICAL_CONTEXT(' ',#1,'mechanical') ;
#24=PERSONAL_ADDRESS(' ',' ',' ',' ',' ',' ',' ',' ',' ',' ',' ',' ',(#22),' ') ;
#113=PLANE('Plane',#112) ;
#171=PLANE('Plane',#170) ;
#263=PLANE('Plane',#262) ;
#391=PLANE('Plane',#390) ;
#411=PLANE('Plane',#410) ;
#43=PLANE_ANGLE_MEASURE_WITH_UNIT(PLANE_ANGLE_MEASURE(0.0174532925199),#42) ;
#7=PRODUCT_CATEGORY('part',$) ;
#9=PRODUCT_CATEGORY_RELATIONSHIP(' ',' ',#7,#8) ;
#6=PRODUCT_DEFINITION_FORMATION_WITH_SPECIFIED_SOURCE('',' ',#5,.NOT_KNOWN.) ;
#8=PRODUCT_RELATED_PRODUCT_CATEGORY('detail',$,(#5)) ;
#50=SHAPE_DEFINITION_REPRESENTATION(#40,#49) ;
#62=VERTEX_POINT('',#61) ;
#64=VERTEX_POINT('',#63) ;
#71=VERTEX_POINT('',#70) ;
#78=VERTEX_POINT('',#77) ;
#119=VERTEX_POINT('',#118) ;
#121=VERTEX_POINT('',#120) ;
#128=VERTEX_POINT('',#127) ;
#135=VERTEX_POINT('',#134) ;
#145=VERTEX_POINT('',#144) ;
#180=VERTEX_POINT('',#179) ;
#182=VERTEX_POINT('',#181) ;
#192=VERTEX_POINT('',#191) ;
#199=VERTEX_POINT('',#198) ;
#206=VERTEX_POINT('',#205) ;
#235=VERTEX_POINT('',#234) ;
#237=VERTEX_POINT('',#236) ;
#269=VERTEX_POINT('',#268) ;
#281=VERTEX_POINT('',#280) ;
#288=VERTEX_POINT('',#287) ;
#316=VERTEX_POINT('',#315) ;
#343=VERTEX_POINT('',#342) ;
#370=VERTEX_POINT('',#369) ;
#41=(LENGTH_UNIT()NAMED_UNIT(*)SI_UNIT(.MILLI.,.METRE.)) ;
#42=(NAMED_UNIT(*)PLANE_ANGLE_UNIT()SI_UNIT($,.RADIAN.)) ;
#44=(NAMED_UNIT(*)SI_UNIT($,.STERADIAN.)SOLID_ANGLE_UNIT()) ;
#46=(GEOMETRIC_REPRESENTATION_CONTEXT(3)GLOBAL_UNCERTAINTY_ASSIGNED_CONTEXT((#45))GLOBAL_UNIT_ASSIGNED_CONTEXT((#41,#42,#44))REPRESENTATION_CONTEXT(' ',' ')) ;
ENDSEC;
END-ISO-10303-21;
