ISO-10303-21;
HEADER;
FILE_DESCRIPTION((''),'2;1');
FILE_NAME('CYLINDR','2022-10-24T20:18:32',('georg'),(''),
'CREO PARAMETRIC BY PTC INC, 2018100','CREO PARAMETRIC BY PTC INC, 2018100','');
FILE_SCHEMA(('CONFIG_CONTROL_DESIGN'));
ENDSEC;
DATA;
#1=CARTESIAN_POINT('',(0.E0,0.E0,0.E0));
#2=DIRECTION('',(0.E0,-1.E0,0.E0));
#3=DIRECTION('',(-1.E0,0.E0,0.E0));
#4=AXIS2_PLACEMENT_3D('',#1,#2,#3);
#6=CARTESIAN_POINT('',(0.E0,0.E0,0.E0));
#7=DIRECTION('',(0.E0,-1.E0,0.E0));
#8=DIRECTION('',(1.E0,0.E0,0.E0));
#9=AXIS2_PLACEMENT_3D('',#6,#7,#8);
#11=DIRECTION('',(0.E0,0.E0,1.E0));
#12=VECTOR('',#11,1.E1);
#13=CARTESIAN_POINT('',(7.5E0,0.E0,-5.E0));
#14=LINE('',#13,#12);
#15=DIRECTION('',(1.E0,0.E0,0.E0));
#16=VECTOR('',#15,1.5E1);
#17=CARTESIAN_POINT('',(-7.5E0,0.E0,-5.E0));
#18=LINE('',#17,#16);
#19=DIRECTION('',(0.E0,0.E0,1.E0));
#20=VECTOR('',#19,1.E1);
#21=CARTESIAN_POINT('',(-7.5E0,0.E0,-5.E0));
#22=LINE('',#21,#20);
#23=DIRECTION('',(1.E0,0.E0,0.E0));
#24=VECTOR('',#23,1.5E1);
#25=CARTESIAN_POINT('',(-7.5E0,0.E0,5.E0));
#26=LINE('',#25,#24);
#27=DIRECTION('',(0.E0,1.E0,0.E0));
#28=VECTOR('',#27,1.5E2);
#29=CARTESIAN_POINT('',(8.E1,-1.5E2,0.E0));
#30=LINE('',#29,#28);
#31=DIRECTION('',(0.E0,1.E0,0.E0));
#32=VECTOR('',#31,1.5E2);
#33=CARTESIAN_POINT('',(-8.E1,-1.5E2,0.E0));
#34=LINE('',#33,#32);
#35=CARTESIAN_POINT('',(0.E0,-1.5E2,0.E0));
#36=DIRECTION('',(0.E0,-1.E0,0.E0));
#37=DIRECTION('',(-1.E0,0.E0,0.E0));
#38=AXIS2_PLACEMENT_3D('',#35,#36,#37);
#40=CARTESIAN_POINT('',(0.E0,-1.5E2,0.E0));
#41=DIRECTION('',(0.E0,-1.E0,0.E0));
#42=DIRECTION('',(1.E0,0.E0,0.E0));
#43=AXIS2_PLACEMENT_3D('',#40,#41,#42);
#45=DIRECTION('',(2.497223382622E-2,9.988893530488E-1,3.995557412195E-2));
#46=VECTOR('',#45,1.001111881859E2);
#47=CARTESIAN_POINT('',(5.E0,-1.E2,1.E0));
#48=LINE('',#47,#46);
#49=DIRECTION('',(0.E0,0.E0,1.E0));
#50=VECTOR('',#49,2.E0);
#51=CARTESIAN_POINT('',(5.E0,-1.E2,-1.E0));
#52=LINE('',#51,#50);
#53=DIRECTION('',(2.497223382622E-2,9.988893530488E-1,-3.995557412195E-2));
#54=VECTOR('',#53,1.001111881859E2);
#55=CARTESIAN_POINT('',(5.E0,-1.E2,-1.E0));
#56=LINE('',#55,#54);
#57=DIRECTION('',(-2.497223382622E-2,9.988893530488E-1,-3.995557412195E-2));
#58=VECTOR('',#57,1.001111881859E2);
#59=CARTESIAN_POINT('',(-5.E0,-1.E2,-1.E0));
#60=LINE('',#59,#58);
#61=DIRECTION('',(-2.497223382622E-2,9.988893530488E-1,3.995557412195E-2));
#62=VECTOR('',#61,1.001111881859E2);
#63=CARTESIAN_POINT('',(-5.E0,-1.E2,1.E0));
#64=LINE('',#63,#62);
#65=DIRECTION('',(1.E0,0.E0,0.E0));
#66=VECTOR('',#65,1.E1);
#67=CARTESIAN_POINT('',(-5.E0,-1.E2,-1.E0));
#68=LINE('',#67,#66);
#69=DIRECTION('',(1.E0,0.E0,0.E0));
#70=VECTOR('',#69,1.E1);
#71=CARTESIAN_POINT('',(-5.E0,-1.E2,1.E0));
#72=LINE('',#71,#70);
#73=DIRECTION('',(0.E0,0.E0,1.E0));
#74=VECTOR('',#73,2.E0);
#75=CARTESIAN_POINT('',(-5.E0,-1.E2,-1.E0));
#76=LINE('',#75,#74);
#77=CARTESIAN_POINT('',(-8.E1,0.E0,0.E0));
#78=CARTESIAN_POINT('',(8.E1,0.E0,0.E0));
#79=VERTEX_POINT('',#77);
#80=VERTEX_POINT('',#78);
#81=CARTESIAN_POINT('',(-8.E1,-1.5E2,0.E0));
#82=CARTESIAN_POINT('',(8.E1,-1.5E2,0.E0));
#83=VERTEX_POINT('',#81);
#84=VERTEX_POINT('',#82);
#85=CARTESIAN_POINT('',(-5.E0,-1.E2,1.E0));
#86=CARTESIAN_POINT('',(5.E0,-1.E2,1.E0));
#87=VERTEX_POINT('',#85);
#88=VERTEX_POINT('',#86);
#89=CARTESIAN_POINT('',(-5.E0,-1.E2,-1.E0));
#90=CARTESIAN_POINT('',(5.E0,-1.E2,-1.E0));
#91=VERTEX_POINT('',#89);
#92=VERTEX_POINT('',#90);
#93=CARTESIAN_POINT('',(7.5E0,0.E0,-5.E0));
#94=CARTESIAN_POINT('',(7.5E0,0.E0,5.E0));
#95=VERTEX_POINT('',#93);
#96=VERTEX_POINT('',#94);
#97=CARTESIAN_POINT('',(-7.5E0,0.E0,-5.E0));
#98=CARTESIAN_POINT('',(-7.5E0,0.E0,5.E0));
#99=VERTEX_POINT('',#97);
#100=VERTEX_POINT('',#98);
#101=CARTESIAN_POINT('',(0.E0,0.E0,0.E0));
#102=DIRECTION('',(0.E0,1.E0,0.E0));
#103=DIRECTION('',(1.E0,0.E0,0.E0));
#104=AXIS2_PLACEMENT_3D('',#101,#102,#103);
#105=PLANE('',#104);
#107=ORIENTED_EDGE('',*,*,#106,.T.);
#109=ORIENTED_EDGE('',*,*,#108,.T.);
#110=EDGE_LOOP('',(#107,#109));
#111=FACE_OUTER_BOUND('',#110,.F.);
#113=ORIENTED_EDGE('',*,*,#112,.F.);
#115=ORIENTED_EDGE('',*,*,#114,.F.);
#117=ORIENTED_EDGE('',*,*,#116,.T.);
#119=ORIENTED_EDGE('',*,*,#118,.T.);
#120=EDGE_LOOP('',(#113,#115,#117,#119));
#121=FACE_BOUND('',#120,.F.);
#122=ADVANCED_FACE('',(#111,#121),#105,.T.);
#123=CARTESIAN_POINT('',(0.E0,0.E0,0.E0));
#124=DIRECTION('',(0.E0,1.E0,0.E0));
#125=DIRECTION('',(1.E0,0.E0,0.E0));
#126=AXIS2_PLACEMENT_3D('',#123,#124,#125);
#127=CYLINDRICAL_SURFACE('',#126,8.E1);
#128=ORIENTED_EDGE('',*,*,#106,.F.);
#130=ORIENTED_EDGE('',*,*,#129,.F.);
#132=ORIENTED_EDGE('',*,*,#131,.T.);
#134=ORIENTED_EDGE('',*,*,#133,.T.);
#135=EDGE_LOOP('',(#128,#130,#132,#134));
#136=FACE_OUTER_BOUND('',#135,.F.);
#137=ADVANCED_FACE('',(#136),#127,.T.);
#138=CARTESIAN_POINT('',(0.E0,0.E0,0.E0));
#139=DIRECTION('',(0.E0,1.E0,0.E0));
#140=DIRECTION('',(1.E0,0.E0,0.E0));
#141=AXIS2_PLACEMENT_3D('',#138,#139,#140);
#142=CYLINDRICAL_SURFACE('',#141,8.E1);
#143=ORIENTED_EDGE('',*,*,#108,.F.);
#144=ORIENTED_EDGE('',*,*,#133,.F.);
#146=ORIENTED_EDGE('',*,*,#145,.T.);
#147=ORIENTED_EDGE('',*,*,#129,.T.);
#148=EDGE_LOOP('',(#143,#144,#146,#147));
#149=FACE_OUTER_BOUND('',#148,.F.);
#150=ADVANCED_FACE('',(#149),#142,.T.);
#151=CARTESIAN_POINT('',(0.E0,-1.5E2,0.E0));
#152=DIRECTION('',(0.E0,1.E0,0.E0));
#153=DIRECTION('',(1.E0,0.E0,0.E0));
#154=AXIS2_PLACEMENT_3D('',#151,#152,#153);
#155=PLANE('',#154);
#156=ORIENTED_EDGE('',*,*,#131,.F.);
#157=ORIENTED_EDGE('',*,*,#145,.F.);
#158=EDGE_LOOP('',(#156,#157));
#159=FACE_OUTER_BOUND('',#158,.F.);
#160=ADVANCED_FACE('',(#159),#155,.F.);
#161=CARTESIAN_POINT('',(5.E0,-1.E2,-1.5E1));
#162=DIRECTION('',(9.996876464081E-1,-2.499219116020E-2,0.E0));
#163=DIRECTION('',(2.499219116020E-2,9.996876464081E-1,0.E0));
#164=AXIS2_PLACEMENT_3D('',#161,#162,#163);
#165=PLANE('',#164);
#166=ORIENTED_EDGE('',*,*,#112,.T.);
#168=ORIENTED_EDGE('',*,*,#167,.F.);
#170=ORIENTED_EDGE('',*,*,#169,.F.);
#172=ORIENTED_EDGE('',*,*,#171,.T.);
#173=EDGE_LOOP('',(#166,#168,#170,#172));
#174=FACE_OUTER_BOUND('',#173,.F.);
#175=ADVANCED_FACE('',(#174),#165,.F.);
#176=CARTESIAN_POINT('',(-1.3185E1,-1.E2,1.E0));
#177=DIRECTION('',(0.E0,3.996803834887E-2,-9.992009587218E-1));
#178=DIRECTION('',(0.E0,9.992009587218E-1,3.996803834887E-2));
#179=AXIS2_PLACEMENT_3D('',#176,#177,#178);
#180=PLANE('',#179);
#181=ORIENTED_EDGE('',*,*,#118,.F.);
#183=ORIENTED_EDGE('',*,*,#182,.F.);
#185=ORIENTED_EDGE('',*,*,#184,.T.);
#186=ORIENTED_EDGE('',*,*,#167,.T.);
#187=EDGE_LOOP('',(#181,#183,#185,#186));
#188=FACE_OUTER_BOUND('',#187,.F.);
#189=ADVANCED_FACE('',(#188),#180,.T.);
#190=CARTESIAN_POINT('',(-7.5E0,0.E0,-1.5E1));
#191=DIRECTION('',(-9.996876464081E-1,-2.499219116020E-2,0.E0));
#192=DIRECTION('',(2.499219116020E-2,-9.996876464081E-1,0.E0));
#193=AXIS2_PLACEMENT_3D('',#190,#191,#192);
#194=PLANE('',#193);
#195=ORIENTED_EDGE('',*,*,#116,.F.);
#197=ORIENTED_EDGE('',*,*,#196,.F.);
#199=ORIENTED_EDGE('',*,*,#198,.T.);
#200=ORIENTED_EDGE('',*,*,#182,.T.);
#201=EDGE_LOOP('',(#195,#197,#199,#200));
#202=FACE_OUTER_BOUND('',#201,.F.);
#203=ADVANCED_FACE('',(#202),#194,.F.);
#204=CARTESIAN_POINT('',(-1.3185E1,-1.E2,-1.E0));
#205=DIRECTION('',(0.E0,-3.996803834887E-2,-9.992009587218E-1));
#206=DIRECTION('',(0.E0,9.992009587218E-1,-3.996803834887E-2));
#207=AXIS2_PLACEMENT_3D('',#204,#205,#206);
#208=PLANE('',#207);
#209=ORIENTED_EDGE('',*,*,#114,.T.);
#210=ORIENTED_EDGE('',*,*,#171,.F.);
#212=ORIENTED_EDGE('',*,*,#211,.F.);
#213=ORIENTED_EDGE('',*,*,#196,.T.);
#214=EDGE_LOOP('',(#209,#210,#212,#213));
#215=FACE_OUTER_BOUND('',#214,.F.);
#216=ADVANCED_FACE('',(#215),#208,.F.);
#217=CARTESIAN_POINT('',(-5.E0,-1.E2,-1.5E1));
#218=DIRECTION('',(0.E0,-1.E0,0.E0));
#219=DIRECTION('',(1.E0,0.E0,0.E0));
#220=AXIS2_PLACEMENT_3D('',#217,#218,#219);
#221=PLANE('',#220);
#222=ORIENTED_EDGE('',*,*,#211,.T.);
#223=ORIENTED_EDGE('',*,*,#169,.T.);
#224=ORIENTED_EDGE('',*,*,#184,.F.);
#225=ORIENTED_EDGE('',*,*,#198,.F.);
#226=EDGE_LOOP('',(#222,#223,#224,#225));
#227=FACE_OUTER_BOUND('',#226,.F.);
#228=ADVANCED_FACE('',(#227),#221,.F.);
#229=CLOSED_SHELL('',(#122,#137,#150,#160,#175,#189,#203,#216,#228));
#230=MANIFOLD_SOLID_BREP('',#229);
#232=DIMENSIONAL_EXPONENTS(0.E0,0.E0,0.E0,0.E0,0.E0,0.E0,0.E0);
#234=PLANE_ANGLE_MEASURE_WITH_UNIT(PLANE_ANGLE_MEASURE(1.745329251994E-2),#233);
#235=(CONVERSION_BASED_UNIT('DEGREE',#234)NAMED_UNIT(*)PLANE_ANGLE_UNIT());
#237=UNCERTAINTY_MEASURE_WITH_UNIT(LENGTH_MEASURE(2.715442650619E-2),#231,
'closure',
'Maximum model space distance between geometric entities at asserted connectivities');
#238=(GEOMETRIC_REPRESENTATION_CONTEXT(3)GLOBAL_UNCERTAINTY_ASSIGNED_CONTEXT((
#237))GLOBAL_UNIT_ASSIGNED_CONTEXT((#231,#235,#236))REPRESENTATION_CONTEXT
('ID1','3'));
#240=APPLICATION_CONTEXT(
'CONFIGURATION CONTROLLED 3D DESIGNS OF MECHANICAL PARTS AND ASSEMBLIES');
#241=APPLICATION_PROTOCOL_DEFINITION('international standard',
'config_control_design',1994,#240);
#242=DESIGN_CONTEXT('',#240,'design');
#243=MECHANICAL_CONTEXT('',#240,'mechanical');
#244=PRODUCT('CYLINDR','CYLINDR','NOT SPECIFIED',(#243));
#245=PRODUCT_DEFINITION_FORMATION_WITH_SPECIFIED_SOURCE('5','LAST_VERSION',#244,
.MADE.);
#249=PRODUCT_CATEGORY('part','');
#250=PRODUCT_RELATED_PRODUCT_CATEGORY('detail','',(#244));
#251=PRODUCT_CATEGORY_RELATIONSHIP('','',#249,#250);
#252=SECURITY_CLASSIFICATION_LEVEL('unclassified');
#253=SECURITY_CLASSIFICATION('','',#252);
#254=CC_DESIGN_SECURITY_CLASSIFICATION(#253,(#245));
#255=APPROVAL_STATUS('approved');
#256=APPROVAL(#255,'');
#257=CC_DESIGN_APPROVAL(#256,(#253,#245,#246));
#258=CALENDAR_DATE(122,24,10);
#259=COORDINATED_UNIVERSAL_TIME_OFFSET(5,30,.AHEAD.);
#260=LOCAL_TIME(20,18,3.2E1,#259);
#261=DATE_AND_TIME(#258,#260);
#262=APPROVAL_DATE_TIME(#261,#256);
#263=DATE_TIME_ROLE('creation_date');
#264=CC_DESIGN_DATE_AND_TIME_ASSIGNMENT(#261,#263,(#246));
#265=DATE_TIME_ROLE('classification_date');
#266=CC_DESIGN_DATE_AND_TIME_ASSIGNMENT(#261,#265,(#253));
#267=PERSON('UNSPECIFIED','UNSPECIFIED',$,$,$,$);
#268=ORGANIZATION('UNSPECIFIED','UNSPECIFIED','UNSPECIFIED');
#269=PERSON_AND_ORGANIZATION(#267,#268);
#270=APPROVAL_ROLE('approver');
#271=APPROVAL_PERSON_ORGANIZATION(#269,#256,#270);
#272=PERSON_AND_ORGANIZATION_ROLE('creator');
#273=CC_DESIGN_PERSON_AND_ORGANIZATION_ASSIGNMENT(#269,#272,(#245,#246));
#274=PERSON_AND_ORGANIZATION_ROLE('design_supplier');
#275=CC_DESIGN_PERSON_AND_ORGANIZATION_ASSIGNMENT(#269,#274,(#245));
#276=PERSON_AND_ORGANIZATION_ROLE('classification_officer');
#277=CC_DESIGN_PERSON_AND_ORGANIZATION_ASSIGNMENT(#269,#276,(#253));
#278=PERSON_AND_ORGANIZATION_ROLE('design_owner');
#279=CC_DESIGN_PERSON_AND_ORGANIZATION_ASSIGNMENT(#269,#278,(#244));
#5=CIRCLE('',#4,8.E1);
#10=CIRCLE('',#9,8.E1);
#39=CIRCLE('',#38,8.E1);
#44=CIRCLE('',#43,8.E1);
#106=EDGE_CURVE('',#79,#80,#5,.T.);
#108=EDGE_CURVE('',#80,#79,#10,.T.);
#112=EDGE_CURVE('',#95,#96,#14,.T.);
#114=EDGE_CURVE('',#99,#95,#18,.T.);
#116=EDGE_CURVE('',#99,#100,#22,.T.);
#118=EDGE_CURVE('',#100,#96,#26,.T.);
#129=EDGE_CURVE('',#83,#79,#34,.T.);
#131=EDGE_CURVE('',#83,#84,#39,.T.);
#133=EDGE_CURVE('',#84,#80,#30,.T.);
#145=EDGE_CURVE('',#84,#83,#44,.T.);
#167=EDGE_CURVE('',#88,#96,#48,.T.);
#169=EDGE_CURVE('',#92,#88,#52,.T.);
#171=EDGE_CURVE('',#92,#95,#56,.T.);
#182=EDGE_CURVE('',#87,#100,#64,.T.);
#184=EDGE_CURVE('',#87,#88,#72,.T.);
#196=EDGE_CURVE('',#91,#99,#60,.T.);
#198=EDGE_CURVE('',#91,#87,#76,.T.);
#211=EDGE_CURVE('',#91,#92,#68,.T.);
#231=(LENGTH_UNIT()NAMED_UNIT(*)SI_UNIT(.MILLI.,.METRE.));
#233=(NAMED_UNIT(*)PLANE_ANGLE_UNIT()SI_UNIT($,.RADIAN.));
#236=(NAMED_UNIT(*)SI_UNIT($,.STERADIAN.)SOLID_ANGLE_UNIT());
#239=ADVANCED_BREP_SHAPE_REPRESENTATION('',(#230),#238);
#246=PRODUCT_DEFINITION('design','',#245,#242);
#247=PRODUCT_DEFINITION_SHAPE('','SHAPE FOR CYLINDR.',#246);
#248=SHAPE_DEFINITION_REPRESENTATION(#247,#239);
ENDSEC;
END-ISO-10303-21;
