ISO-10303-21;
HEADER;
FILE_DESCRIPTION (( 'STEP AP203' ),
    '1' );
FILE_NAME ('rod_medium.STEP',
    '2022-11-19T17:38:49',
    ( '' ),
    ( '' ),
    'SwSTEP 2.0',
    'SolidWorks 2021',
    '' );
FILE_SCHEMA (( 'CONFIG_CONTROL_DESIGN' ));
ENDSEC;

DATA;
#1 = CARTESIAN_POINT ( 'NONE',  ( 0.000000000000000000, 0.000000000000000000, 0.000000000000000000 ) ) ;
#2 = PERSON_AND_ORGANIZATION ( #383, #394 ) ;
#3 = ADVANCED_FACE ( 'NONE', ( #91, #84 ), #211, .F. ) ;
#4 = DIRECTION ( 'NONE',  ( -0.000000000000000000, -5.706327223607918479E-18, -1.000000000000000000 ) ) ;
#5 = APPLICATION_CONTEXT ( 'configuration controlled 3d designs of mechanical parts and assemblies' ) ;
#6 = DIRECTION ( 'NONE',  ( -0.000000000000000000, -5.706327223607918479E-18, -1.000000000000000000 ) ) ;
#7 = AXIS2_PLACEMENT_3D ( 'NONE', #387, #355, #288 ) ;
#8 = CARTESIAN_POINT ( 'NONE',  ( 0.000000000000000000, 0.000000000000000000, 0.000000000000000000 ) ) ;
#9 = EDGE_CURVE ( 'NONE', #53, #265, #403, .T. ) ;
#10 = DIRECTION ( 'NONE',  ( 0.000000000000000000, 1.000000000000000000, 0.000000000000000000 ) ) ;
#11 = PRODUCT_DEFINITION_SHAPE ( 'NONE', 'NONE',  #245 ) ;
#12 = DIRECTION ( 'NONE',  ( 1.000000000000000000, 0.000000000000000000, 0.000000000000000000 ) ) ;
#13 = AXIS2_PLACEMENT_3D ( 'NONE', #59, #121, #236 ) ;
#14 = CARTESIAN_POINT ( 'NONE',  ( 0.000000000000000000, -2.054277800498850961E-16, -36.00000000000000711 ) ) ;
#15 = ORIENTED_EDGE ( 'NONE', *, *, #169, .F. ) ;
#16 = UNCERTAINTY_MEASURE_WITH_UNIT (LENGTH_MEASURE( 1.000000000000000082E-05 ), #248, 'distance_accuracy_value', 'NONE');
#17 = CYLINDRICAL_SURFACE ( 'NONE', #324, 1.949999999999999956 ) ;
#18 = CIRCLE ( 'NONE', #240, 1.949999999999999956 ) ;
#19 = EDGE_CURVE ( 'NONE', #265, #53, #370, .T. ) ;
#20 = EDGE_LOOP ( 'NONE', ( #87, #402 ) ) ;
#21 = ORIENTED_EDGE ( 'NONE', *, *, #299, .F. ) ;
#22 = CLOSED_SHELL ( 'NONE', ( #320, #143, #52, #75, #388, #39, #127, #223, #344, #407, #3, #63, #109 ) ) ;
#23 = COORDINATED_UNIVERSAL_TIME_OFFSET ( 8, 0, .BEHIND. ) ;
#24 = DIRECTION ( 'NONE',  ( 1.000000000000000000, 0.000000000000000000, 0.000000000000000000 ) ) ;
#25 = VERTEX_POINT ( 'NONE', #71 ) ;
#26 = APPROVAL_ROLE ( '' ) ;
#27 = CARTESIAN_POINT ( 'NONE',  ( -3.000000000000000000, 3.673940397442059868E-16, 0.000000000000000000 ) ) ;
#28 = ORIENTED_EDGE ( 'NONE', *, *, #364, .F. ) ;
#29 = DATE_TIME_ROLE ( 'creation_date' ) ;
#30 = CIRCLE ( 'NONE', #102, 1.600000000000000089 ) ;
#31 = CYLINDRICAL_SURFACE ( 'NONE', #220, 1.600000000000000089 ) ;
#32 = CARTESIAN_POINT ( 'NONE',  ( 0.000000000000000000, 0.000000000000000000, -1.999999999999999556 ) ) ;
#33 = CC_DESIGN_PERSON_AND_ORGANIZATION_ASSIGNMENT ( #272, #60, ( #371 ) ) ;
#34 = CARTESIAN_POINT ( 'NONE',  ( -3.000000000000000000, 3.673940397442059868E-16, 0.000000000000000000 ) ) ;
#35 = DIRECTION ( 'NONE',  ( 1.000000000000000000, 0.000000000000000000, 0.000000000000000000 ) ) ;
#36 = FACE_OUTER_BOUND ( 'NONE', #334, .T. ) ;
#37 = CYLINDRICAL_SURFACE ( 'NONE', #276, 3.000000000000000000 ) ;
#38 = CIRCLE ( 'NONE', #137, 1.600000000000000089 ) ;
#39 = ADVANCED_FACE ( 'NONE', ( #246 ), #323, .F. ) ;
#40 = DIRECTION ( 'NONE',  ( -0.000000000000000000, -0.000000000000000000, 1.000000000000000000 ) ) ;
#41 = CARTESIAN_POINT ( 'NONE',  ( 0.000000000000000000, -2.099928418287714370E-16, -36.80000000000000426 ) ) ;
#42 = LINE ( 'NONE', #110, #209 ) ;
#43 = DIRECTION ( 'NONE',  ( 1.000000000000000000, 0.000000000000000000, 0.000000000000000000 ) ) ;
#44 = DIRECTION ( 'NONE',  ( -0.000000000000000000, -5.706327223607918479E-18, -1.000000000000000000 ) ) ;
#45 = EDGE_LOOP ( 'NONE', ( #212, #234 ) ) ;
#46 = APPROVAL_ROLE ( '' ) ;
#47 = LINE ( 'NONE', #327, #173 ) ;
#48 = ORIENTED_EDGE ( 'NONE', *, *, #299, .T. ) ;
#49 = CARTESIAN_POINT ( 'NONE',  ( 0.000000000000000000, 0.000000000000000000, -1.999999999999999556 ) ) ;
#50 = ORIENTED_EDGE ( 'NONE', *, *, #266, .F. ) ;
#51 = CARTESIAN_POINT ( 'NONE',  ( 0.000000000000000000, 1.599999999999999867, -36.00000000000000711 ) ) ;
#52 = ADVANCED_FACE ( 'NONE', ( #69 ), #203, .T. ) ;
#53 = VERTEX_POINT ( 'NONE', #134 ) ;
#54 = AXIS2_PLACEMENT_3D ( 'NONE', #283, #222, #414 ) ;
#55 = APPLICATION_CONTEXT ( 'configuration controlled 3d designs of mechanical parts and assemblies' ) ;
#56 = ORIENTED_EDGE ( 'NONE', *, *, #364, .T. ) ;
#57 = ORIENTED_EDGE ( 'NONE', *, *, #328, .T. ) ;
#58 = CIRCLE ( 'NONE', #85, 3.000000000000000000 ) ;
#59 = CARTESIAN_POINT ( 'NONE',  ( 0.000000000000000000, 1.949999999999999956, -36.80000000000000426 ) ) ;
#60 = PERSON_AND_ORGANIZATION_ROLE ( 'creator' ) ;
#61 = DATE_AND_TIME ( #411, #167 ) ;
#62 = CARTESIAN_POINT ( 'NONE',  ( 0.000000000000000000, -2.054277800498850961E-16, -36.00000000000000711 ) ) ;
#63 = ADVANCED_FACE ( 'NONE', ( #243 ), #347, .F. ) ;
#64 = ADVANCED_BREP_SHAPE_REPRESENTATION ( 'rod_medium', ( #354, #262 ), #306 ) ;
#65 = DIRECTION ( 'NONE',  ( 0.000000000000000000, 5.706327223607918479E-18, 1.000000000000000000 ) ) ;
#66 = CC_DESIGN_APPROVAL ( #278, ( #245 ) ) ;
#67 = DIRECTION ( 'NONE',  ( -0.000000000000000000, -0.000000000000000000, 1.000000000000000000 ) ) ;
#68 = FACE_OUTER_BOUND ( 'NONE', #185, .T. ) ;
#69 = FACE_OUTER_BOUND ( 'NONE', #309, .T. ) ;
#70 = EDGE_CURVE ( 'NONE', #271, #160, #166, .T. ) ;
#71 = CARTESIAN_POINT ( 'NONE',  ( -3.000000000000000000, 3.673940397442059868E-16, -1.999999999999999556 ) ) ;
#72 = DIRECTION ( 'NONE',  ( 0.000000000000000000, 0.000000000000000000, -1.000000000000000000 ) ) ;
#73 = DIRECTION ( 'NONE',  ( -0.000000000000000000, -0.000000000000000000, 1.000000000000000000 ) ) ;
#74 = ORIENTED_EDGE ( 'NONE', *, *, #312, .T. ) ;
#75 = ADVANCED_FACE ( 'NONE', ( #319 ), #280, .T. ) ;
#76 = PERSON_AND_ORGANIZATION ( #383, #394 ) ;
#77 = CARTESIAN_POINT ( 'NONE',  ( 1.949999999999999956, 0.000000000000000000, -1.999999999999999556 ) ) ;
#78 = AXIS2_PLACEMENT_3D ( 'NONE', #14, #44, #401 ) ;
#79 = ORIENTED_EDGE ( 'NONE', *, *, #328, .F. ) ;
#80 = FACE_OUTER_BOUND ( 'NONE', #360, .T. ) ;
#81 = ORIENTED_EDGE ( 'NONE', *, *, #391, .T. ) ;
#82 = EDGE_CURVE ( 'NONE', #25, #148, #58, .T. ) ;
#83 = ORIENTED_EDGE ( 'NONE', *, *, #122, .F. ) ;
#84 = FACE_BOUND ( 'NONE', #45, .T. ) ;
#85 = AXIS2_PLACEMENT_3D ( 'NONE', #32, #40, #168 ) ;
#86 = EDGE_LOOP ( 'NONE', ( #333, #74, #21, #79 ) ) ;
#87 = ORIENTED_EDGE ( 'NONE', *, *, #177, .T. ) ;
#88 = EDGE_CURVE ( 'NONE', #338, #399, #393, .T. ) ;
#89 = PERSON_AND_ORGANIZATION ( #383, #394 ) ;
#90 = DIRECTION ( 'NONE',  ( -0.000000000000000000, -0.000000000000000000, 1.000000000000000000 ) ) ;
#91 = FACE_OUTER_BOUND ( 'NONE', #156, .T. ) ;
#92 = AXIS2_PLACEMENT_3D ( 'NONE', #140, #294, #142 ) ;
#93 = LOCAL_TIME ( 9, 38, 49.00000000000000000, #194 ) ;
#94 = APPROVAL_DATE_TIME ( #61, #340 ) ;
#95 = CALENDAR_DATE ( 2022, 19, 11 ) ;
#96 = PERSON_AND_ORGANIZATION ( #383, #394 ) ;
#97 = EDGE_CURVE ( 'NONE', #141, #205, #108, .T. ) ;
#98 = CARTESIAN_POINT ( 'NONE',  ( 0.000000000000000000, -2.168404344971008868E-16, -38.00000000000000000 ) ) ;
#99 = DATE_TIME_ROLE ( 'classification_date' ) ;
#100 = CARTESIAN_POINT ( 'NONE',  ( 0.000000000000000000, 0.000000000000000000, 0.000000000000000000 ) ) ;
#101 = DIRECTION ( 'NONE',  ( 0.000000000000000000, 1.000000000000000000, 0.000000000000000000 ) ) ;
#102 = AXIS2_PLACEMENT_3D ( 'NONE', #322, #6, #281 ) ;
#103 = FACE_OUTER_BOUND ( 'NONE', #379, .T. ) ;
#104 = PRODUCT_RELATED_PRODUCT_CATEGORY ( 'detail', '', ( #151 ) ) ;
#105 = LINE ( 'NONE', #34, #202 ) ;
#106 = DIRECTION ( 'NONE',  ( -0.000000000000000000, -5.706327223607918479E-18, -1.000000000000000000 ) ) ;
#107 = DIRECTION ( 'NONE',  ( -0.000000000000000000, -0.000000000000000000, 1.000000000000000000 ) ) ;
#108 = CIRCLE ( 'NONE', #7, 1.949999999999999956 ) ;
#109 = ADVANCED_FACE ( 'NONE', ( #103 ), #164, .T. ) ;
#110 = CARTESIAN_POINT ( 'NONE',  ( 1.959434878635765230E-16, -1.600000000000000311, -38.00000000000000000 ) ) ;
#111 = ORIENTED_EDGE ( 'NONE', *, *, #9, .F. ) ;
#112 = CARTESIAN_POINT ( 'NONE',  ( -1.950000000000000400, 2.388061258337339629E-16, -36.80000000000000426 ) ) ;
#113 = AXIS2_PLACEMENT_3D ( 'NONE', #41, #4, #101 ) ;
#114 = LOCAL_TIME ( 9, 38, 49.00000000000000000, #331 ) ;
#115 = EDGE_CURVE ( 'NONE', #342, #53, #326, .T. ) ;
#116 = CARTESIAN_POINT ( 'NONE',  ( 0.000000000000000000, 1.599999999999999867, -36.80000000000000426 ) ) ;
#117 = ORIENTED_EDGE ( 'NONE', *, *, #253, .T. ) ;
#118 = FACE_OUTER_BOUND ( 'NONE', #144, .T. ) ;
#119 = ORIENTED_EDGE ( 'NONE', *, *, #253, .F. ) ;
#120 = AXIS2_PLACEMENT_3D ( 'NONE', #138, #332, #335 ) ;
#121 = DIRECTION ( 'NONE',  ( 0.000000000000000000, -5.706327223607918479E-18, -1.000000000000000000 ) ) ;
#122 = EDGE_CURVE ( 'NONE', #341, #176, #377, .T. ) ;
#123 = EDGE_LOOP ( 'NONE', ( #257, #149, #125, #369 ) ) ;
#124 = CARTESIAN_POINT ( 'NONE',  ( 1.949999999999999956, 0.000000000000000000, -38.00000000000000000 ) ) ;
#125 = ORIENTED_EDGE ( 'NONE', *, *, #19, .T. ) ;
#126 = AXIS2_PLACEMENT_3D ( 'NONE', #100, #172, #43 ) ;
#127 = ADVANCED_FACE ( 'NONE', ( #199 ), #37, .T. ) ;
#128 = CARTESIAN_POINT ( 'NONE',  ( -1.949999999999999956, 2.388061258337338643E-16, -38.00000000000000000 ) ) ;
#129 = CARTESIAN_POINT ( 'NONE',  ( 0.000000000000000000, 0.000000000000000000, 0.000000000000000000 ) ) ;
#130 = DIRECTION ( 'NONE',  ( 0.000000000000000000, -0.000000000000000000, 1.000000000000000000 ) ) ;
#131 = PERSON_AND_ORGANIZATION ( #383, #394 ) ;
#132 = CARTESIAN_POINT ( 'NONE',  ( 0.000000000000000000, 0.000000000000000000, 0.000000000000000000 ) ) ;
#133 = VECTOR ( 'NONE', #90, 1000.000000000000000 ) ;
#134 = CARTESIAN_POINT ( 'NONE',  ( 1.950000000000000400, 4.814824860968089633E-32, -36.80000000000000426 ) ) ;
#135 = DIRECTION ( 'NONE',  ( -0.000000000000000000, -0.000000000000000000, 1.000000000000000000 ) ) ;
#136 = CC_DESIGN_DATE_AND_TIME_ASSIGNMENT ( #317, #29, ( #245 ) ) ;
#137 = AXIS2_PLACEMENT_3D ( 'NONE', #175, #392, #231 ) ;
#138 = CARTESIAN_POINT ( 'NONE',  ( 0.000000000000000000, 3.000000000000000000, -1.999999999999999556 ) ) ;
#139 = DIRECTION ( 'NONE',  ( 1.000000000000000000, 0.000000000000000000, 0.000000000000000000 ) ) ;
#140 = CARTESIAN_POINT ( 'NONE',  ( 0.000000000000000000, 0.000000000000000000, 0.000000000000000000 ) ) ;
#141 = VERTEX_POINT ( 'NONE', #289 ) ;
#142 = DIRECTION ( 'NONE',  ( 1.000000000000000000, 0.000000000000000000, 0.000000000000000000 ) ) ;
#143 = ADVANCED_FACE ( 'NONE', ( #381 ), #356, .T. ) ;
#144 = EDGE_LOOP ( 'NONE', ( #362, #183 ) ) ;
#145 = CARTESIAN_POINT ( 'NONE',  ( 0.000000000000000000, 0.000000000000000000, 0.000000000000000000 ) ) ;
#146 = AXIS2_PLACEMENT_3D ( 'NONE', #352, #65, #310 ) ;
#147 = CC_DESIGN_SECURITY_CLASSIFICATION ( #226, ( #371 ) ) ;
#148 = VERTEX_POINT ( 'NONE', #259 ) ;
#149 = ORIENTED_EDGE ( 'NONE', *, *, #159, .T. ) ;
#150 = CC_DESIGN_DATE_AND_TIME_ASSIGNMENT ( #384, #99, ( #226 ) ) ;
#151 = PRODUCT ( 'rod_medium', 'rod_medium', '', ( #363 ) ) ;
#152 = AXIS2_PLACEMENT_3D ( 'NONE', #296, #255, #361 ) ;
#153 = ORIENTED_EDGE ( 'NONE', *, *, #188, .T. ) ;
#154 = COORDINATED_UNIVERSAL_TIME_OFFSET ( 8, 0, .BEHIND. ) ;
#155 = LINE ( 'NONE', #374, #133 ) ;
#156 = EDGE_LOOP ( 'NONE', ( #111, #235 ) ) ;
#157 = APPROVAL_STATUS ( 'not_yet_approved' ) ;
#158 = VERTEX_POINT ( 'NONE', #116 ) ;
#159 = EDGE_CURVE ( 'NONE', #408, #265, #366, .T. ) ;
#160 = VERTEX_POINT ( 'NONE', #208 ) ;
#161 = AXIS2_PLACEMENT_3D ( 'NONE', #389, #106, #285 ) ;
#162 = CALENDAR_DATE ( 2022, 19, 11 ) ;
#163 = CARTESIAN_POINT ( 'NONE',  ( 0.000000000000000000, 0.000000000000000000, 0.000000000000000000 ) ) ;
#164 = CYLINDRICAL_SURFACE ( 'NONE', #315, 1.949999999999999956 ) ;
#165 = DIRECTION ( 'NONE',  ( -0.000000000000000000, -5.706327223607918479E-18, -1.000000000000000000 ) ) ;
#166 = CIRCLE ( 'NONE', #292, 1.600000000000000089 ) ;
#167 = LOCAL_TIME ( 9, 38, 49.00000000000000000, #154 ) ;
#168 = DIRECTION ( 'NONE',  ( 1.000000000000000000, 0.000000000000000000, 0.000000000000000000 ) ) ;
#169 = EDGE_CURVE ( 'NONE', #158, #302, #38, .T. ) ;
#170 = DIRECTION ( 'NONE',  ( -0.000000000000000000, -5.706327223607918479E-18, -1.000000000000000000 ) ) ;
#171 = ORIENTED_EDGE ( 'NONE', *, *, #115, .T. ) ;
#172 = DIRECTION ( 'NONE',  ( -0.000000000000000000, -0.000000000000000000, 1.000000000000000000 ) ) ;
#173 = VECTOR ( 'NONE', #178, 1000.000000000000000 ) ;
#174 = APPROVAL_PERSON_ORGANIZATION ( #76, #278, #46 ) ;
#175 = CARTESIAN_POINT ( 'NONE',  ( 0.000000000000000000, -2.099928418287714370E-16, -36.80000000000000426 ) ) ;
#176 = VERTEX_POINT ( 'NONE', #404 ) ;
#177 = EDGE_CURVE ( 'NONE', #176, #341, #213, .T. ) ;
#178 = DIRECTION ( 'NONE',  ( -0.000000000000000000, -5.706327223607918479E-18, -1.000000000000000000 ) ) ;
#179 = ORIENTED_EDGE ( 'NONE', *, *, #82, .T. ) ;
#180 = LINE ( 'NONE', #329, #304 ) ;
#181 = DIRECTION ( 'NONE',  ( -0.000000000000000000, -5.706327223607918479E-18, -1.000000000000000000 ) ) ;
#182 = ORIENTED_EDGE ( 'NONE', *, *, #376, .F. ) ;
#183 = ORIENTED_EDGE ( 'NONE', *, *, #88, .T. ) ;
#184 = APPROVAL ( #373, 'UNSPECIFIED' ) ;
#185 = EDGE_LOOP ( 'NONE', ( #191, #405, #57, #229 ) ) ;
#186 = DATE_AND_TIME ( #95, #242 ) ;
#187 = AXIS2_PLACEMENT_3D ( 'NONE', #372, #339, #282 ) ;
#188 = EDGE_CURVE ( 'NONE', #148, #176, #359, .T. ) ;
#189 = ORIENTED_EDGE ( 'NONE', *, *, #70, .F. ) ;
#190 = SHAPE_DEFINITION_REPRESENTATION ( #11, #64 ) ;
#191 = ORIENTED_EDGE ( 'NONE', *, *, #312, .F. ) ;
#192 = PERSON_AND_ORGANIZATION_ROLE ( 'creator' ) ;
#193 = DIRECTION ( 'NONE',  ( 0.000000000000000000, 1.000000000000000000, 0.000000000000000000 ) ) ;
#194 = COORDINATED_UNIVERSAL_TIME_OFFSET ( 8, 0, .BEHIND. ) ;
#195 = CARTESIAN_POINT ( 'NONE',  ( 1.950000000000000400, 4.814824860968089633E-32, -36.00000000000000711 ) ) ;
#196 = CARTESIAN_POINT ( 'NONE',  ( 0.000000000000000000, 1.949999999999999956, -38.00000000000000000 ) ) ;
#197 = EDGE_CURVE ( 'NONE', #399, #338, #349, .T. ) ;
#198 = DIRECTION ( 'NONE',  ( 0.000000000000000000, 1.000000000000000000, 0.000000000000000000 ) ) ;
#199 = FACE_OUTER_BOUND ( 'NONE', #345, .T. ) ;
#200 = CARTESIAN_POINT ( 'NONE',  ( 0.000000000000000000, 0.000000000000000000, 0.000000000000000000 ) ) ;
#201 = DIRECTION ( 'NONE',  ( -1.000000000000000000, 0.000000000000000000, -0.000000000000000000 ) ) ;
#202 = VECTOR ( 'NONE', #318, 1000.000000000000000 ) ;
#203 = CYLINDRICAL_SURFACE ( 'NONE', #357, 3.000000000000000000 ) ;
#204 = FACE_BOUND ( 'NONE', #239, .T. ) ;
#205 = VERTEX_POINT ( 'NONE', #77 ) ;
#206 = AXIS2_PLACEMENT_3D ( 'NONE', #196, #130, #351 ) ;
#207 = CARTESIAN_POINT ( 'NONE',  ( 0.000000000000000000, -2.099928418287714370E-16, -36.80000000000000426 ) ) ;
#208 = CARTESIAN_POINT ( 'NONE',  ( 1.959434878635765230E-16, -1.600000000000000311, -36.00000000000000711 ) ) ;
#209 = VECTOR ( 'NONE', #170, 1000.000000000000000 ) ;
#210 = CC_DESIGN_PERSON_AND_ORGANIZATION_ASSIGNMENT ( #2, #192, ( #245 ) ) ;
#211 = PLANE ( 'NONE',  #13 ) ;
#212 = ORIENTED_EDGE ( 'NONE', *, *, #169, .T. ) ;
#213 = CIRCLE ( 'NONE', #92, 3.000000000000000000 ) ;
#214 = PERSON_AND_ORGANIZATION ( #383, #394 ) ;
#215 = CARTESIAN_POINT ( 'NONE',  ( 0.000000000000000000, -2.168404344971008868E-16, -38.00000000000000000 ) ) ;
#216 = DIRECTION ( 'NONE',  ( -0.000000000000000000, -5.706327223607918479E-18, -1.000000000000000000 ) ) ;
#217 = CARTESIAN_POINT ( 'NONE',  ( 0.000000000000000000, 0.000000000000000000, 0.000000000000000000 ) ) ;
#218 = CC_DESIGN_PERSON_AND_ORGANIZATION_ASSIGNMENT ( #378, #313, ( #371 ) ) ;
#219 = CIRCLE ( 'NONE', #409, 1.600000000000000089 ) ;
#220 = AXIS2_PLACEMENT_3D ( 'NONE', #215, #348, #198 ) ;
#221 = DIRECTION ( 'NONE',  ( -0.000000000000000000, -0.000000000000000000, 1.000000000000000000 ) ) ;
#222 = DIRECTION ( 'NONE',  ( -0.000000000000000000, -0.000000000000000000, 1.000000000000000000 ) ) ;
#223 = ADVANCED_FACE ( 'NONE', ( #80, #204 ), #228, .F. ) ;
#224 = DIRECTION ( 'NONE',  ( 1.000000000000000000, 0.000000000000000000, 0.000000000000000000 ) ) ;
#225 = CIRCLE ( 'NONE', #250, 1.949999999999999956 ) ;
#226 = SECURITY_CLASSIFICATION ( '', '', #279 ) ;
#227 = DIRECTION ( 'NONE',  ( -0.000000000000000000, -0.000000000000000000, 1.000000000000000000 ) ) ;
#228 = PLANE ( 'NONE',  #120 ) ;
#229 = ORIENTED_EDGE ( 'NONE', *, *, #97, .F. ) ;
#230 = APPLICATION_PROTOCOL_DEFINITION ( 'international standard', 'config_control_design', 1994, #5 ) ;
#231 = DIRECTION ( 'NONE',  ( 0.000000000000000000, 1.000000000000000000, 0.000000000000000000 ) ) ;
#232 = APPROVAL_STATUS ( 'not_yet_approved' ) ;
#233 = ORIENTED_EDGE ( 'NONE', *, *, #159, .F. ) ;
#234 = ORIENTED_EDGE ( 'NONE', *, *, #284, .T. ) ;
#235 = ORIENTED_EDGE ( 'NONE', *, *, #19, .F. ) ;
#236 = DIRECTION ( 'NONE',  ( 0.000000000000000000, 1.000000000000000000, -5.706327223607918479E-18 ) ) ;
#237 = ORIENTED_EDGE ( 'NONE', *, *, #188, .F. ) ;
#238 = COORDINATED_UNIVERSAL_TIME_OFFSET ( 8, 0, .BEHIND. ) ;
#239 = EDGE_LOOP ( 'NONE', ( #48, #375 ) ) ;
#240 = AXIS2_PLACEMENT_3D ( 'NONE', #321, #244, #382 ) ;
#241 = ORIENTED_EDGE ( 'NONE', *, *, #293, .F. ) ;
#242 = LOCAL_TIME ( 9, 38, 49.00000000000000000, #238 ) ;
#243 = FACE_OUTER_BOUND ( 'NONE', #406, .T. ) ;
#244 = DIRECTION ( 'NONE',  ( -0.000000000000000000, -0.000000000000000000, 1.000000000000000000 ) ) ;
#245 = PRODUCT_DEFINITION ( 'UNKNOWN', '', #371, #263 ) ;
#246 = FACE_OUTER_BOUND ( 'NONE', #20, .T. ) ;
#247 = CALENDAR_DATE ( 2022, 19, 11 ) ;
#248 =( LENGTH_UNIT ( ) NAMED_UNIT ( * ) SI_UNIT ( .MILLI., .METRE. ) );
#249 = DIRECTION ( 'NONE',  ( -0.000000000000000000, -0.000000000000000000, 1.000000000000000000 ) ) ;
#250 = AXIS2_PLACEMENT_3D ( 'NONE', #49, #290, #12 ) ;
#251 = APPROVAL_PERSON_ORGANIZATION ( #214, #340, #305 ) ;
#252 = DIRECTION ( 'NONE',  ( -0.000000000000000000, -0.000000000000000000, 1.000000000000000000 ) ) ;
#253 = EDGE_CURVE ( 'NONE', #271, #158, #47, .T. ) ;
#254 = DIRECTION ( 'NONE',  ( 1.000000000000000000, 0.000000000000000000, 0.000000000000000000 ) ) ;
#255 = DIRECTION ( 'NONE',  ( -0.000000000000000000, -0.000000000000000000, 1.000000000000000000 ) ) ;
#256 = CARTESIAN_POINT ( 'NONE',  ( 1.959434878635765230E-16, -1.600000000000000311, -36.80000000000000426 ) ) ;
#257 = ORIENTED_EDGE ( 'NONE', *, *, #266, .T. ) ;
#258 = DATE_AND_TIME ( #295, #114 ) ;
#259 = CARTESIAN_POINT ( 'NONE',  ( 3.000000000000000000, 0.000000000000000000, -1.999999999999999556 ) ) ;
#260 = EDGE_LOOP ( 'NONE', ( #415, #301, #15, #119 ) ) ;
#261 = VECTOR ( 'NONE', #227, 1000.000000000000000 ) ;
#262 = AXIS2_PLACEMENT_3D ( 'NONE', #200, #291, #139 ) ;
#263 = DESIGN_CONTEXT ( 'detailed design', #55, 'design' ) ;
#264 = CARTESIAN_POINT ( 'NONE',  ( -1.949999999999999956, 2.388061258337338643E-16, 0.000000000000000000 ) ) ;
#265 = VERTEX_POINT ( 'NONE', #112 ) ;
#266 = EDGE_CURVE ( 'NONE', #342, #408, #336, .T. ) ;
#267 = EDGE_LOOP ( 'NONE', ( #189, #273 ) ) ;
#268 = ORIENTED_EDGE ( 'NONE', *, *, #391, .F. ) ;
#269 = AXIS2_PLACEMENT_3D ( 'NONE', #132, #72, #201 ) ;
#270 = PERSON_AND_ORGANIZATION_ROLE ( 'classification_officer' ) ;
#271 = VERTEX_POINT ( 'NONE', #51 ) ;
#272 = PERSON_AND_ORGANIZATION ( #383, #394 ) ;
#273 = ORIENTED_EDGE ( 'NONE', *, *, #398, .F. ) ;
#274 = APPROVAL_DATE_TIME ( #186, #184 ) ;
#275 = CYLINDRICAL_SURFACE ( 'NONE', #126, 1.949999999999999956 ) ;
#276 = AXIS2_PLACEMENT_3D ( 'NONE', #8, #107, #224 ) ;
#277 = ORIENTED_EDGE ( 'NONE', *, *, #376, .T. ) ;
#278 = APPROVAL ( #232, 'UNSPECIFIED' ) ;
#279 = SECURITY_CLASSIFICATION_LEVEL ( 'unclassified' ) ;
#280 = CYLINDRICAL_SURFACE ( 'NONE', #330, 1.949999999999999956 ) ;
#281 = DIRECTION ( 'NONE',  ( 0.000000000000000000, 1.000000000000000000, 0.000000000000000000 ) ) ;
#282 = DIRECTION ( 'NONE',  ( 0.000000000000000000, 1.000000000000000000, 0.000000000000000000 ) ) ;
#283 = CARTESIAN_POINT ( 'NONE',  ( 0.000000000000000000, 0.000000000000000000, -1.999999999999999556 ) ) ;
#284 = EDGE_CURVE ( 'NONE', #302, #158, #219, .T. ) ;
#285 = DIRECTION ( 'NONE',  ( 0.000000000000000000, 1.000000000000000000, 0.000000000000000000 ) ) ;
#286 = VECTOR ( 'NONE', #249, 1000.000000000000000 ) ;
#287 = CC_DESIGN_APPROVAL ( #184, ( #371 ) ) ;
#288 = DIRECTION ( 'NONE',  ( 1.000000000000000000, 0.000000000000000000, 0.000000000000000000 ) ) ;
#289 = CARTESIAN_POINT ( 'NONE',  ( -1.949999999999999956, 2.388061258337338643E-16, -1.999999999999999556 ) ) ;
#290 = DIRECTION ( 'NONE',  ( -0.000000000000000000, -0.000000000000000000, 1.000000000000000000 ) ) ;
#291 = DIRECTION ( 'NONE',  ( 0.000000000000000000, 0.000000000000000000, 1.000000000000000000 ) ) ;
#292 = AXIS2_PLACEMENT_3D ( 'NONE', #62, #165, #193 ) ;
#293 = EDGE_CURVE ( 'NONE', #160, #302, #42, .T. ) ;
#294 = DIRECTION ( 'NONE',  ( -0.000000000000000000, -0.000000000000000000, 1.000000000000000000 ) ) ;
#295 = CALENDAR_DATE ( 2022, 19, 11 ) ;
#296 = CARTESIAN_POINT ( 'NONE',  ( 0.000000000000000000, 0.000000000000000000, -38.00000000000000000 ) ) ;
#297 = ORIENTED_EDGE ( 'NONE', *, *, #398, .T. ) ;
#298 = FACE_OUTER_BOUND ( 'NONE', #123, .T. ) ;
#299 = EDGE_CURVE ( 'NONE', #205, #141, #225, .T. ) ;
#300 = CIRCLE ( 'NONE', #54, 3.000000000000000000 ) ;
#301 = ORIENTED_EDGE ( 'NONE', *, *, #293, .T. ) ;
#302 = VERTEX_POINT ( 'NONE', #256 ) ;
#303 = ORIENTED_EDGE ( 'NONE', *, *, #284, .F. ) ;
#304 = VECTOR ( 'NONE', #395, 1000.000000000000000 ) ;
#305 = APPROVAL_ROLE ( '' ) ;
#306 =( GEOMETRIC_REPRESENTATION_CONTEXT ( 3 ) GLOBAL_UNCERTAINTY_ASSIGNED_CONTEXT ( ( #16 ) ) GLOBAL_UNIT_ASSIGNED_CONTEXT ( ( #248, #380, #385 ) ) REPRESENTATION_CONTEXT ( 'NONE', 'WORKASPACE' ) );
#307 = ORIENTED_EDGE ( 'NONE', *, *, #9, .T. ) ;
#308 = CARTESIAN_POINT ( 'NONE',  ( -1.950000000000000400, 2.388061258337339629E-16, -36.00000000000000711 ) ) ;
#309 = EDGE_LOOP ( 'NONE', ( #81, #56, #311, #237 ) ) ;
#310 = DIRECTION ( 'NONE',  ( 0.000000000000000000, -1.000000000000000000, 5.706327223607918479E-18 ) ) ;
#311 = ORIENTED_EDGE ( 'NONE', *, *, #177, .F. ) ;
#312 = EDGE_CURVE ( 'NONE', #338, #141, #180, .T. ) ;
#313 = PERSON_AND_ORGANIZATION_ROLE ( 'design_supplier' ) ;
#314 = APPLICATION_PROTOCOL_DEFINITION ( 'international standard', 'config_control_design', 1994, #55 ) ;
#315 = AXIS2_PLACEMENT_3D ( 'NONE', #163, #135, #390 ) ;
#316 = CARTESIAN_POINT ( 'NONE',  ( 1.949999999999999956, 0.000000000000000000, 0.000000000000000000 ) ) ;
#317 = DATE_AND_TIME ( #162, #93 ) ;
#318 = DIRECTION ( 'NONE',  ( -0.000000000000000000, -0.000000000000000000, 1.000000000000000000 ) ) ;
#319 = FACE_OUTER_BOUND ( 'NONE', #86, .T. ) ;
#320 = ADVANCED_FACE ( 'NONE', ( #298 ), #17, .T. ) ;
#321 = CARTESIAN_POINT ( 'NONE',  ( 0.000000000000000000, 0.000000000000000000, -38.00000000000000000 ) ) ;
#322 = CARTESIAN_POINT ( 'NONE',  ( 0.000000000000000000, -2.054277800498850961E-16, -36.00000000000000711 ) ) ;
#323 = PLANE ( 'NONE',  #269 ) ;
#324 = AXIS2_PLACEMENT_3D ( 'NONE', #145, #410, #24 ) ;
#325 = CC_DESIGN_APPROVAL ( #340, ( #226 ) ) ;
#326 = LINE ( 'NONE', #316, #286 ) ;
#327 = CARTESIAN_POINT ( 'NONE',  ( 0.000000000000000000, 1.599999999999999867, -38.00000000000000000 ) ) ;
#328 = EDGE_CURVE ( 'NONE', #399, #205, #155, .T. ) ;
#329 = CARTESIAN_POINT ( 'NONE',  ( -1.949999999999999956, 2.388061258337338643E-16, 0.000000000000000000 ) ) ;
#330 = AXIS2_PLACEMENT_3D ( 'NONE', #1, #252, #35 ) ;
#331 = COORDINATED_UNIVERSAL_TIME_OFFSET ( 8, 0, .BEHIND. ) ;
#332 = DIRECTION ( 'NONE',  ( 0.000000000000000000, -0.000000000000000000, 1.000000000000000000 ) ) ;
#333 = ORIENTED_EDGE ( 'NONE', *, *, #88, .F. ) ;
#334 = EDGE_LOOP ( 'NONE', ( #241, #297, #117, #303 ) ) ;
#335 = DIRECTION ( 'NONE',  ( 1.000000000000000000, 0.000000000000000000, 0.000000000000000000 ) ) ;
#336 = CIRCLE ( 'NONE', #152, 1.949999999999999956 ) ;
#337 = APPROVAL_PERSON_ORGANIZATION ( #89, #184, #26 ) ;
#338 = VERTEX_POINT ( 'NONE', #308 ) ;
#339 = DIRECTION ( 'NONE',  ( -0.000000000000000000, -5.706327223607918479E-18, -1.000000000000000000 ) ) ;
#340 = APPROVAL ( #157, 'UNSPECIFIED' ) ;
#341 = VERTEX_POINT ( 'NONE', #27 ) ;
#342 = VERTEX_POINT ( 'NONE', #124 ) ;
#343 = FACE_BOUND ( 'NONE', #267, .T. ) ;
#344 = ADVANCED_FACE ( 'NONE', ( #343, #118 ), #396, .F. ) ;
#345 = EDGE_LOOP ( 'NONE', ( #28, #179, #153, #83 ) ) ;
#346 = PERSON_AND_ORGANIZATION_ROLE ( 'design_owner' ) ;
#347 = PLANE ( 'NONE',  #206 ) ;
#348 = DIRECTION ( 'NONE',  ( -0.000000000000000000, -5.706327223607918479E-18, -1.000000000000000000 ) ) ;
#349 = CIRCLE ( 'NONE', #78, 1.950000000000000178 ) ;
#350 = VECTOR ( 'NONE', #73, 1000.000000000000000 ) ;
#351 = DIRECTION ( 'NONE',  ( 1.000000000000000000, 0.000000000000000000, 0.000000000000000000 ) ) ;
#352 = CARTESIAN_POINT ( 'NONE',  ( 0.000000000000000000, 1.949999999999999956, -36.00000000000000711 ) ) ;
#353 = DIRECTION ( 'NONE',  ( 1.000000000000000000, 0.000000000000000000, 0.000000000000000000 ) ) ;
#354 = MANIFOLD_SOLID_BREP ( 'Cut-Revolve1', #22 ) ;
#355 = DIRECTION ( 'NONE',  ( -0.000000000000000000, -0.000000000000000000, 1.000000000000000000 ) ) ;
#356 = CYLINDRICAL_SURFACE ( 'NONE', #413, 1.600000000000000089 ) ;
#357 = AXIS2_PLACEMENT_3D ( 'NONE', #217, #67, #254 ) ;
#358 = CC_DESIGN_PERSON_AND_ORGANIZATION_ASSIGNMENT ( #96, #346, ( #151 ) ) ;
#359 = LINE ( 'NONE', #368, #350 ) ;
#360 = EDGE_LOOP ( 'NONE', ( #268, #367 ) ) ;
#361 = DIRECTION ( 'NONE',  ( 1.000000000000000000, 0.000000000000000000, 0.000000000000000000 ) ) ;
#362 = ORIENTED_EDGE ( 'NONE', *, *, #197, .T. ) ;
#363 = MECHANICAL_CONTEXT ( 'NONE', #5, 'mechanical' ) ;
#364 = EDGE_CURVE ( 'NONE', #25, #341, #105, .T. ) ;
#365 = LOCAL_TIME ( 9, 38, 49.00000000000000000, #23 ) ;
#366 = LINE ( 'NONE', #264, #261 ) ;
#367 = ORIENTED_EDGE ( 'NONE', *, *, #82, .F. ) ;
#368 = CARTESIAN_POINT ( 'NONE',  ( 3.000000000000000000, 0.000000000000000000, 0.000000000000000000 ) ) ;
#369 = ORIENTED_EDGE ( 'NONE', *, *, #115, .F. ) ;
#370 = CIRCLE ( 'NONE', #113, 1.950000000000000178 ) ;
#371 = PRODUCT_DEFINITION_FORMATION_WITH_SPECIFIED_SOURCE ( 'ANY', '', #151, .NOT_KNOWN. ) ;
#372 = CARTESIAN_POINT ( 'NONE',  ( 0.000000000000000000, -2.099928418287714370E-16, -36.80000000000000426 ) ) ;
#373 = APPROVAL_STATUS ( 'not_yet_approved' ) ;
#374 = CARTESIAN_POINT ( 'NONE',  ( 1.949999999999999956, 0.000000000000000000, 0.000000000000000000 ) ) ;
#375 = ORIENTED_EDGE ( 'NONE', *, *, #97, .T. ) ;
#376 = EDGE_CURVE ( 'NONE', #408, #342, #18, .T. ) ;
#377 = CIRCLE ( 'NONE', #386, 3.000000000000000000 ) ;
#378 = PERSON_AND_ORGANIZATION ( #383, #394 ) ;
#379 = EDGE_LOOP ( 'NONE', ( #233, #277, #171, #307 ) ) ;
#380 =( NAMED_UNIT ( * ) PLANE_ANGLE_UNIT ( ) SI_UNIT ( $, .RADIAN. ) );
#381 = FACE_OUTER_BOUND ( 'NONE', #260, .T. ) ;
#382 = DIRECTION ( 'NONE',  ( 1.000000000000000000, 0.000000000000000000, 0.000000000000000000 ) ) ;
#383 = PERSON ( 'UNSPECIFIED', 'UNSPECIFIED', 'UNSPECIFIED', ('UNSPECIFIED'), ('UNSPECIFIED'), ('UNSPECIFIED') ) ;
#384 = DATE_AND_TIME ( #247, #365 ) ;
#385 =( NAMED_UNIT ( * ) SI_UNIT ( $, .STERADIAN. ) SOLID_ANGLE_UNIT ( ) );
#386 = AXIS2_PLACEMENT_3D ( 'NONE', #129, #221, #353 ) ;
#387 = CARTESIAN_POINT ( 'NONE',  ( 0.000000000000000000, 0.000000000000000000, -1.999999999999999556 ) ) ;
#388 = ADVANCED_FACE ( 'NONE', ( #68 ), #275, .T. ) ;
#389 = CARTESIAN_POINT ( 'NONE',  ( 0.000000000000000000, -2.054277800498850961E-16, -36.00000000000000711 ) ) ;
#390 = DIRECTION ( 'NONE',  ( 1.000000000000000000, 0.000000000000000000, 0.000000000000000000 ) ) ;
#391 = EDGE_CURVE ( 'NONE', #148, #25, #300, .T. ) ;
#392 = DIRECTION ( 'NONE',  ( -0.000000000000000000, -5.706327223607918479E-18, -1.000000000000000000 ) ) ;
#393 = CIRCLE ( 'NONE', #161, 1.950000000000000178 ) ;
#394 = ORGANIZATION ( 'UNSPECIFIED', 'UNSPECIFIED', '' ) ;
#395 = DIRECTION ( 'NONE',  ( -0.000000000000000000, -0.000000000000000000, 1.000000000000000000 ) ) ;
#396 = PLANE ( 'NONE',  #146 ) ;
#397 = DIRECTION ( 'NONE',  ( 0.000000000000000000, 1.000000000000000000, 0.000000000000000000 ) ) ;
#398 = EDGE_CURVE ( 'NONE', #160, #271, #30, .T. ) ;
#399 = VERTEX_POINT ( 'NONE', #195 ) ;
#400 = APPROVAL_DATE_TIME ( #258, #278 ) ;
#401 = DIRECTION ( 'NONE',  ( 0.000000000000000000, 1.000000000000000000, 0.000000000000000000 ) ) ;
#402 = ORIENTED_EDGE ( 'NONE', *, *, #122, .T. ) ;
#403 = CIRCLE ( 'NONE', #187, 1.950000000000000178 ) ;
#404 = CARTESIAN_POINT ( 'NONE',  ( 3.000000000000000000, 0.000000000000000000, 0.000000000000000000 ) ) ;
#405 = ORIENTED_EDGE ( 'NONE', *, *, #197, .F. ) ;
#406 = EDGE_LOOP ( 'NONE', ( #50, #182 ) ) ;
#407 = ADVANCED_FACE ( 'NONE', ( #36 ), #31, .T. ) ;
#408 = VERTEX_POINT ( 'NONE', #128 ) ;
#409 = AXIS2_PLACEMENT_3D ( 'NONE', #207, #181, #10 ) ;
#410 = DIRECTION ( 'NONE',  ( -0.000000000000000000, -0.000000000000000000, 1.000000000000000000 ) ) ;
#411 = CALENDAR_DATE ( 2022, 19, 11 ) ;
#412 = CC_DESIGN_PERSON_AND_ORGANIZATION_ASSIGNMENT ( #131, #270, ( #226 ) ) ;
#413 = AXIS2_PLACEMENT_3D ( 'NONE', #98, #216, #397 ) ;
#414 = DIRECTION ( 'NONE',  ( 1.000000000000000000, 0.000000000000000000, 0.000000000000000000 ) ) ;
#415 = ORIENTED_EDGE ( 'NONE', *, *, #70, .T. ) ;
ENDSEC;
END-ISO-10303-21;
