ISO-10303-21;
HEADER;
/* Generated by software containing ST-Developer
 * from STEP Tools, Inc. (www.steptools.com) 
 */

FILE_DESCRIPTION(
/* description */ (''),
/* implementation_level */ '2;1');

FILE_NAME(
/* name */ 'Support canon 12mm.stp',
/* time_stamp */ '2022-11-15T11:36:09+01:00',
/* author */ ('ethomas'),
/* organization */ (''),
/* preprocessor_version */ 'ST-DEVELOPER v19.2',
/* originating_system */ 'Autodesk Inventor 2023',
/* authorisation */ '');

FILE_SCHEMA (('AUTOMOTIVE_DESIGN { 1 0 10303 214 3 1 1 }'));
ENDSEC;

DATA;
#10=MECHANICAL_DESIGN_GEOMETRIC_PRESENTATION_REPRESENTATION('',(#222,#223,
#224,#225,#226),#424);
#11=SHAPE_REPRESENTATION_RELATIONSHIP('SRR','None',#431,#12);
#12=ADVANCED_BREP_SHAPE_REPRESENTATION('',(#13),#423);
#13=MANIFOLD_SOLID_BREP('Solide1',#239);
#14=FACE_BOUND('',#45,.T.);
#15=FACE_BOUND('',#46,.T.);
#16=FACE_BOUND('',#47,.T.);
#17=FACE_BOUND('',#48,.T.);
#18=FACE_BOUND('',#55,.T.);
#19=FACE_BOUND('',#56,.T.);
#20=FACE_BOUND('',#57,.T.);
#21=FACE_BOUND('',#58,.T.);
#22=PLANE('',#274);
#23=PLANE('',#275);
#24=PLANE('',#281);
#25=PLANE('',#284);
#26=PLANE('',#287);
#27=FACE_OUTER_BOUND('',#39,.T.);
#28=FACE_OUTER_BOUND('',#40,.T.);
#29=FACE_OUTER_BOUND('',#41,.T.);
#30=FACE_OUTER_BOUND('',#42,.T.);
#31=FACE_OUTER_BOUND('',#43,.T.);
#32=FACE_OUTER_BOUND('',#44,.T.);
#33=FACE_OUTER_BOUND('',#49,.T.);
#34=FACE_OUTER_BOUND('',#50,.T.);
#35=FACE_OUTER_BOUND('',#51,.T.);
#36=FACE_OUTER_BOUND('',#52,.T.);
#37=FACE_OUTER_BOUND('',#53,.T.);
#38=FACE_OUTER_BOUND('',#54,.T.);
#39=EDGE_LOOP('',(#155,#156,#157,#158));
#40=EDGE_LOOP('',(#159,#160,#161,#162));
#41=EDGE_LOOP('',(#163,#164,#165,#166));
#42=EDGE_LOOP('',(#167,#168,#169,#170));
#43=EDGE_LOOP('',(#171,#172,#173,#174));
#44=EDGE_LOOP('',(#175,#176,#177,#178,#179,#180));
#45=EDGE_LOOP('',(#181));
#46=EDGE_LOOP('',(#182));
#47=EDGE_LOOP('',(#183));
#48=EDGE_LOOP('',(#184));
#49=EDGE_LOOP('',(#185,#186,#187,#188));
#50=EDGE_LOOP('',(#189,#190,#191,#192));
#51=EDGE_LOOP('',(#193,#194,#195,#196));
#52=EDGE_LOOP('',(#197,#198,#199,#200));
#53=EDGE_LOOP('',(#201,#202,#203,#204));
#54=EDGE_LOOP('',(#205,#206,#207,#208,#209,#210));
#55=EDGE_LOOP('',(#211));
#56=EDGE_LOOP('',(#212));
#57=EDGE_LOOP('',(#213));
#58=EDGE_LOOP('',(#214));
#59=LINE('',#363,#75);
#60=LINE('',#369,#76);
#61=LINE('',#375,#77);
#62=LINE('',#382,#78);
#63=LINE('',#385,#79);
#64=LINE('',#388,#80);
#65=LINE('',#390,#81);
#66=LINE('',#391,#82);
#67=LINE('',#394,#83);
#68=LINE('',#398,#84);
#69=LINE('',#406,#85);
#70=LINE('',#407,#86);
#71=LINE('',#410,#87);
#72=LINE('',#411,#88);
#73=LINE('',#415,#89);
#74=LINE('',#417,#90);
#75=VECTOR('',#294,3.05);
#76=VECTOR('',#301,2.5);
#77=VECTOR('',#308,2.5);
#78=VECTOR('',#315,10.);
#79=VECTOR('',#318,10.);
#80=VECTOR('',#321,10.);
#81=VECTOR('',#322,10.);
#82=VECTOR('',#323,10.);
#83=VECTOR('',#326,10.);
#84=VECTOR('',#329,10.);
#85=VECTOR('',#338,10.);
#86=VECTOR('',#339,10.);
#87=VECTOR('',#342,10.);
#88=VECTOR('',#343,10.);
#89=VECTOR('',#348,9.);
#90=VECTOR('',#351,10.);
#91=CIRCLE('',#263,3.05);
#92=CIRCLE('',#264,3.05);
#93=CIRCLE('',#266,2.5);
#94=CIRCLE('',#267,2.5);
#95=CIRCLE('',#269,2.5);
#96=CIRCLE('',#270,2.5);
#97=CIRCLE('',#272,2.);
#98=CIRCLE('',#273,2.);
#99=CIRCLE('',#276,2.);
#100=CIRCLE('',#277,11.);
#101=CIRCLE('',#278,9.);
#102=CIRCLE('',#280,2.);
#103=CIRCLE('',#283,9.);
#104=CIRCLE('',#286,11.);
#105=VERTEX_POINT('',#360);
#106=VERTEX_POINT('',#362);
#107=VERTEX_POINT('',#366);
#108=VERTEX_POINT('',#368);
#109=VERTEX_POINT('',#372);
#110=VERTEX_POINT('',#374);
#111=VERTEX_POINT('',#378);
#112=VERTEX_POINT('',#379);
#113=VERTEX_POINT('',#381);
#114=VERTEX_POINT('',#383);
#115=VERTEX_POINT('',#387);
#116=VERTEX_POINT('',#389);
#117=VERTEX_POINT('',#393);
#118=VERTEX_POINT('',#395);
#119=VERTEX_POINT('',#397);
#120=VERTEX_POINT('',#400);
#121=VERTEX_POINT('',#403);
#122=VERTEX_POINT('',#404);
#123=VERTEX_POINT('',#409);
#124=VERTEX_POINT('',#413);
#125=EDGE_CURVE('',#105,#105,#91,.T.);
#126=EDGE_CURVE('',#105,#106,#59,.T.);
#127=EDGE_CURVE('',#106,#106,#92,.T.);
#128=EDGE_CURVE('',#107,#107,#93,.T.);
#129=EDGE_CURVE('',#107,#108,#60,.T.);
#130=EDGE_CURVE('',#108,#108,#94,.T.);
#131=EDGE_CURVE('',#109,#109,#95,.T.);
#132=EDGE_CURVE('',#109,#110,#61,.T.);
#133=EDGE_CURVE('',#110,#110,#96,.T.);
#134=EDGE_CURVE('',#111,#112,#97,.T.);
#135=EDGE_CURVE('',#112,#113,#62,.T.);
#136=EDGE_CURVE('',#113,#114,#98,.T.);
#137=EDGE_CURVE('',#114,#111,#63,.T.);
#138=EDGE_CURVE('',#114,#115,#64,.T.);
#139=EDGE_CURVE('',#115,#116,#65,.T.);
#140=EDGE_CURVE('',#111,#116,#66,.T.);
#141=EDGE_CURVE('',#117,#113,#67,.T.);
#142=EDGE_CURVE('',#118,#117,#99,.T.);
#143=EDGE_CURVE('',#119,#118,#68,.T.);
#144=EDGE_CURVE('',#115,#119,#100,.T.);
#145=EDGE_CURVE('',#120,#120,#101,.T.);
#146=EDGE_CURVE('',#121,#122,#102,.T.);
#147=EDGE_CURVE('',#122,#118,#69,.T.);
#148=EDGE_CURVE('',#117,#121,#70,.T.);
#149=EDGE_CURVE('',#123,#122,#71,.T.);
#150=EDGE_CURVE('',#119,#123,#72,.T.);
#151=EDGE_CURVE('',#124,#124,#103,.T.);
#152=EDGE_CURVE('',#124,#120,#73,.T.);
#153=EDGE_CURVE('',#121,#112,#74,.T.);
#154=EDGE_CURVE('',#116,#123,#104,.T.);
#155=ORIENTED_EDGE('',*,*,#125,.F.);
#156=ORIENTED_EDGE('',*,*,#126,.T.);
#157=ORIENTED_EDGE('',*,*,#127,.F.);
#158=ORIENTED_EDGE('',*,*,#126,.F.);
#159=ORIENTED_EDGE('',*,*,#128,.F.);
#160=ORIENTED_EDGE('',*,*,#129,.T.);
#161=ORIENTED_EDGE('',*,*,#130,.F.);
#162=ORIENTED_EDGE('',*,*,#129,.F.);
#163=ORIENTED_EDGE('',*,*,#131,.F.);
#164=ORIENTED_EDGE('',*,*,#132,.T.);
#165=ORIENTED_EDGE('',*,*,#133,.F.);
#166=ORIENTED_EDGE('',*,*,#132,.F.);
#167=ORIENTED_EDGE('',*,*,#134,.T.);
#168=ORIENTED_EDGE('',*,*,#135,.T.);
#169=ORIENTED_EDGE('',*,*,#136,.T.);
#170=ORIENTED_EDGE('',*,*,#137,.T.);
#171=ORIENTED_EDGE('',*,*,#137,.F.);
#172=ORIENTED_EDGE('',*,*,#138,.T.);
#173=ORIENTED_EDGE('',*,*,#139,.T.);
#174=ORIENTED_EDGE('',*,*,#140,.F.);
#175=ORIENTED_EDGE('',*,*,#136,.F.);
#176=ORIENTED_EDGE('',*,*,#141,.F.);
#177=ORIENTED_EDGE('',*,*,#142,.F.);
#178=ORIENTED_EDGE('',*,*,#143,.F.);
#179=ORIENTED_EDGE('',*,*,#144,.F.);
#180=ORIENTED_EDGE('',*,*,#138,.F.);
#181=ORIENTED_EDGE('',*,*,#127,.T.);
#182=ORIENTED_EDGE('',*,*,#130,.T.);
#183=ORIENTED_EDGE('',*,*,#133,.T.);
#184=ORIENTED_EDGE('',*,*,#145,.F.);
#185=ORIENTED_EDGE('',*,*,#146,.T.);
#186=ORIENTED_EDGE('',*,*,#147,.T.);
#187=ORIENTED_EDGE('',*,*,#142,.T.);
#188=ORIENTED_EDGE('',*,*,#148,.T.);
#189=ORIENTED_EDGE('',*,*,#147,.F.);
#190=ORIENTED_EDGE('',*,*,#149,.F.);
#191=ORIENTED_EDGE('',*,*,#150,.F.);
#192=ORIENTED_EDGE('',*,*,#143,.T.);
#193=ORIENTED_EDGE('',*,*,#151,.F.);
#194=ORIENTED_EDGE('',*,*,#152,.T.);
#195=ORIENTED_EDGE('',*,*,#145,.T.);
#196=ORIENTED_EDGE('',*,*,#152,.F.);
#197=ORIENTED_EDGE('',*,*,#135,.F.);
#198=ORIENTED_EDGE('',*,*,#153,.F.);
#199=ORIENTED_EDGE('',*,*,#148,.F.);
#200=ORIENTED_EDGE('',*,*,#141,.T.);
#201=ORIENTED_EDGE('',*,*,#144,.T.);
#202=ORIENTED_EDGE('',*,*,#150,.T.);
#203=ORIENTED_EDGE('',*,*,#154,.F.);
#204=ORIENTED_EDGE('',*,*,#139,.F.);
#205=ORIENTED_EDGE('',*,*,#134,.F.);
#206=ORIENTED_EDGE('',*,*,#140,.T.);
#207=ORIENTED_EDGE('',*,*,#154,.T.);
#208=ORIENTED_EDGE('',*,*,#149,.T.);
#209=ORIENTED_EDGE('',*,*,#146,.F.);
#210=ORIENTED_EDGE('',*,*,#153,.T.);
#211=ORIENTED_EDGE('',*,*,#125,.T.);
#212=ORIENTED_EDGE('',*,*,#128,.T.);
#213=ORIENTED_EDGE('',*,*,#131,.T.);
#214=ORIENTED_EDGE('',*,*,#151,.T.);
#215=CYLINDRICAL_SURFACE('',#262,3.05);
#216=CYLINDRICAL_SURFACE('',#265,2.5);
#217=CYLINDRICAL_SURFACE('',#268,2.5);
#218=CYLINDRICAL_SURFACE('',#271,2.);
#219=CYLINDRICAL_SURFACE('',#279,2.);
#220=CYLINDRICAL_SURFACE('',#282,9.);
#221=CYLINDRICAL_SURFACE('',#285,11.);
#222=STYLED_ITEM('',(#441),#227);
#223=STYLED_ITEM('',(#441),#228);
#224=STYLED_ITEM('',(#441),#229);
#225=STYLED_ITEM('',(#441),#235);
#226=STYLED_ITEM('',(#440),#13);
#227=ADVANCED_FACE('',(#27),#215,.F.);
#228=ADVANCED_FACE('',(#28),#216,.F.);
#229=ADVANCED_FACE('',(#29),#217,.F.);
#230=ADVANCED_FACE('',(#30),#218,.T.);
#231=ADVANCED_FACE('',(#31),#22,.T.);
#232=ADVANCED_FACE('',(#32,#14,#15,#16,#17),#23,.F.);
#233=ADVANCED_FACE('',(#33),#219,.T.);
#234=ADVANCED_FACE('',(#34),#24,.T.);
#235=ADVANCED_FACE('',(#35),#220,.F.);
#236=ADVANCED_FACE('',(#36),#25,.T.);
#237=ADVANCED_FACE('',(#37),#221,.T.);
#238=ADVANCED_FACE('',(#38,#18,#19,#20,#21),#26,.T.);
#239=CLOSED_SHELL('',(#227,#228,#229,#230,#231,#232,#233,#234,#235,#236,
#237,#238));
#240=DERIVED_UNIT_ELEMENT(#243,1.);
#241=DERIVED_UNIT_ELEMENT(#426,-3.);
#242=DIMENSIONAL_EXPONENTS(0.,1.,0.,0.,0.,0.,0.);
#243=(
CONVERSION_BASED_UNIT('gram',#245)
MASS_UNIT()
NAMED_UNIT(#242)
);
#244=(
MASS_UNIT()
NAMED_UNIT(*)
SI_UNIT(.KILO.,.GRAM.)
);
#245=MASS_MEASURE_WITH_UNIT(MASS_MEASURE(0.001),#244);
#246=DERIVED_UNIT((#240,#241));
#247=MEASURE_REPRESENTATION_ITEM('density measure',
POSITIVE_RATIO_MEASURE(7.85),#246);
#248=PROPERTY_DEFINITION_REPRESENTATION(#253,#250);
#249=PROPERTY_DEFINITION_REPRESENTATION(#254,#251);
#250=REPRESENTATION('material name',(#252),#423);
#251=REPRESENTATION('density',(#247),#423);
#252=DESCRIPTIVE_REPRESENTATION_ITEM('Acier','Acier');
#253=PROPERTY_DEFINITION('material property','material name',#433);
#254=PROPERTY_DEFINITION('material property','density of part',#433);
#255=DATE_TIME_ROLE('creation_date');
#256=APPLIED_DATE_AND_TIME_ASSIGNMENT(#257,#255,(#433));
#257=DATE_AND_TIME(#258,#259);
#258=CALENDAR_DATE(2022,30,9);
#259=LOCAL_TIME(0,0,0.,#260);
#260=COORDINATED_UNIVERSAL_TIME_OFFSET(0,0,.BEHIND.);
#261=AXIS2_PLACEMENT_3D('placement',#358,#288,#289);
#262=AXIS2_PLACEMENT_3D('',#359,#290,#291);
#263=AXIS2_PLACEMENT_3D('',#361,#292,#293);
#264=AXIS2_PLACEMENT_3D('',#364,#295,#296);
#265=AXIS2_PLACEMENT_3D('',#365,#297,#298);
#266=AXIS2_PLACEMENT_3D('',#367,#299,#300);
#267=AXIS2_PLACEMENT_3D('',#370,#302,#303);
#268=AXIS2_PLACEMENT_3D('',#371,#304,#305);
#269=AXIS2_PLACEMENT_3D('',#373,#306,#307);
#270=AXIS2_PLACEMENT_3D('',#376,#309,#310);
#271=AXIS2_PLACEMENT_3D('',#377,#311,#312);
#272=AXIS2_PLACEMENT_3D('',#380,#313,#314);
#273=AXIS2_PLACEMENT_3D('',#384,#316,#317);
#274=AXIS2_PLACEMENT_3D('',#386,#319,#320);
#275=AXIS2_PLACEMENT_3D('',#392,#324,#325);
#276=AXIS2_PLACEMENT_3D('',#396,#327,#328);
#277=AXIS2_PLACEMENT_3D('',#399,#330,#331);
#278=AXIS2_PLACEMENT_3D('',#401,#332,#333);
#279=AXIS2_PLACEMENT_3D('',#402,#334,#335);
#280=AXIS2_PLACEMENT_3D('',#405,#336,#337);
#281=AXIS2_PLACEMENT_3D('',#408,#340,#341);
#282=AXIS2_PLACEMENT_3D('',#412,#344,#345);
#283=AXIS2_PLACEMENT_3D('',#414,#346,#347);
#284=AXIS2_PLACEMENT_3D('',#416,#349,#350);
#285=AXIS2_PLACEMENT_3D('',#418,#352,#353);
#286=AXIS2_PLACEMENT_3D('',#419,#354,#355);
#287=AXIS2_PLACEMENT_3D('',#420,#356,#357);
#288=DIRECTION('axis',(0.,0.,1.));
#289=DIRECTION('refdir',(1.,0.,0.));
#290=DIRECTION('center_axis',(0.,0.,1.));
#291=DIRECTION('ref_axis',(1.,0.,0.));
#292=DIRECTION('center_axis',(0.,0.,-1.));
#293=DIRECTION('ref_axis',(1.,0.,0.));
#294=DIRECTION('',(0.,0.,-1.));
#295=DIRECTION('center_axis',(0.,0.,1.));
#296=DIRECTION('ref_axis',(1.,0.,0.));
#297=DIRECTION('center_axis',(0.,0.,1.));
#298=DIRECTION('ref_axis',(1.,0.,0.));
#299=DIRECTION('center_axis',(0.,0.,-1.));
#300=DIRECTION('ref_axis',(1.,0.,0.));
#301=DIRECTION('',(0.,0.,-1.));
#302=DIRECTION('center_axis',(0.,0.,1.));
#303=DIRECTION('ref_axis',(1.,0.,0.));
#304=DIRECTION('center_axis',(0.,0.,1.));
#305=DIRECTION('ref_axis',(1.,0.,0.));
#306=DIRECTION('center_axis',(0.,0.,-1.));
#307=DIRECTION('ref_axis',(1.,0.,0.));
#308=DIRECTION('',(0.,0.,-1.));
#309=DIRECTION('center_axis',(0.,0.,1.));
#310=DIRECTION('ref_axis',(1.,0.,0.));
#311=DIRECTION('center_axis',(0.,0.,1.));
#312=DIRECTION('ref_axis',(-0.707106781186546,-0.707106781186549,0.));
#313=DIRECTION('center_axis',(0.,0.,-1.));
#314=DIRECTION('ref_axis',(-0.707106781186546,-0.707106781186549,0.));
#315=DIRECTION('',(0.,0.,-1.));
#316=DIRECTION('center_axis',(0.,0.,1.));
#317=DIRECTION('ref_axis',(-0.707106781186546,-0.707106781186549,0.));
#318=DIRECTION('',(0.,0.,1.));
#319=DIRECTION('center_axis',(1.20024110770287E-16,-1.,0.));
#320=DIRECTION('ref_axis',(1.,1.20024110770287E-16,0.));
#321=DIRECTION('',(1.,1.20024110770287E-16,0.));
#322=DIRECTION('',(0.,0.,1.));
#323=DIRECTION('',(1.,1.20024110770287E-16,0.));
#324=DIRECTION('center_axis',(0.,0.,1.));
#325=DIRECTION('ref_axis',(1.,0.,0.));
#326=DIRECTION('',(0.,-1.,0.));
#327=DIRECTION('center_axis',(0.,0.,1.));
#328=DIRECTION('ref_axis',(-0.70710678118655,0.707106781186545,0.));
#329=DIRECTION('',(-1.,-2.10042193848003E-16,0.));
#330=DIRECTION('center_axis',(0.,0.,1.));
#331=DIRECTION('ref_axis',(0.,-1.,0.));
#332=DIRECTION('center_axis',(0.,0.,-1.));
#333=DIRECTION('ref_axis',(-1.,0.,0.));
#334=DIRECTION('center_axis',(0.,0.,1.));
#335=DIRECTION('ref_axis',(-0.70710678118655,0.707106781186545,0.));
#336=DIRECTION('center_axis',(0.,0.,-1.));
#337=DIRECTION('ref_axis',(-0.70710678118655,0.707106781186545,0.));
#338=DIRECTION('',(0.,0.,-1.));
#339=DIRECTION('',(0.,0.,1.));
#340=DIRECTION('center_axis',(-2.10042193848003E-16,1.,0.));
#341=DIRECTION('ref_axis',(-1.,-2.10042193848003E-16,0.));
#342=DIRECTION('',(-1.,-2.10042193848003E-16,0.));
#343=DIRECTION('',(0.,0.,1.));
#344=DIRECTION('center_axis',(0.,0.,1.));
#345=DIRECTION('ref_axis',(-1.,0.,0.));
#346=DIRECTION('center_axis',(0.,0.,-1.));
#347=DIRECTION('ref_axis',(-1.,0.,0.));
#348=DIRECTION('',(0.,0.,-1.));
#349=DIRECTION('center_axis',(-1.,0.,0.));
#350=DIRECTION('ref_axis',(0.,-1.,0.));
#351=DIRECTION('',(0.,-1.,0.));
#352=DIRECTION('center_axis',(0.,0.,1.));
#353=DIRECTION('ref_axis',(0.,-1.,0.));
#354=DIRECTION('center_axis',(0.,0.,1.));
#355=DIRECTION('ref_axis',(0.,-1.,0.));
#356=DIRECTION('center_axis',(0.,0.,1.));
#357=DIRECTION('ref_axis',(1.,0.,0.));
#358=CARTESIAN_POINT('',(0.,0.,0.));
#359=CARTESIAN_POINT('Origin',(-24.,1.55431223447522E-14,-78.3685464404615));
#360=CARTESIAN_POINT('',(-27.05,1.51696050710123E-14,10.));
#361=CARTESIAN_POINT('Origin',(-24.,1.55431223447522E-14,10.));
#362=CARTESIAN_POINT('',(-27.05,1.51696050710123E-14,0.));
#363=CARTESIAN_POINT('',(-27.05,1.51696050710123E-14,-78.3685464404615));
#364=CARTESIAN_POINT('Origin',(-24.,1.55431223447522E-14,0.));
#365=CARTESIAN_POINT('Origin',(-7.,1.55431223447522E-14,-78.3685464404615));
#366=CARTESIAN_POINT('',(-9.5,1.52369606449654E-14,10.));
#367=CARTESIAN_POINT('Origin',(-7.,1.55431223447522E-14,10.));
#368=CARTESIAN_POINT('',(-9.5,1.52369606449654E-14,0.));
#369=CARTESIAN_POINT('',(-9.5,1.52369606449654E-14,-78.3685464404615));
#370=CARTESIAN_POINT('Origin',(-7.,1.55431223447522E-14,0.));
#371=CARTESIAN_POINT('Origin',(-41.,1.55431223447522E-14,-78.3685464404615));
#372=CARTESIAN_POINT('',(-43.5,1.52369606449654E-14,10.));
#373=CARTESIAN_POINT('Origin',(-41.,1.55431223447522E-14,10.));
#374=CARTESIAN_POINT('',(-43.5,1.52369606449654E-14,0.));
#375=CARTESIAN_POINT('',(-43.5,1.52369606449654E-14,-78.3685464404615));
#376=CARTESIAN_POINT('Origin',(-41.,1.55431223447522E-14,0.));
#377=CARTESIAN_POINT('Origin',(-47.,-9.,0.));
#378=CARTESIAN_POINT('',(-47.,-11.,10.));
#379=CARTESIAN_POINT('',(-49.,-9.,10.));
#380=CARTESIAN_POINT('Origin',(-47.,-9.,10.));
#381=CARTESIAN_POINT('',(-49.,-9.,0.));
#382=CARTESIAN_POINT('',(-49.,-9.,0.));
#383=CARTESIAN_POINT('',(-47.,-11.,0.));
#384=CARTESIAN_POINT('Origin',(-47.,-9.,0.));
#385=CARTESIAN_POINT('',(-47.,-11.,0.));
#386=CARTESIAN_POINT('Origin',(-49.,-11.,0.));
#387=CARTESIAN_POINT('',(25.,-11.,0.));
#388=CARTESIAN_POINT('',(-49.,-11.,0.));
#389=CARTESIAN_POINT('',(25.,-11.,10.));
#390=CARTESIAN_POINT('',(25.,-11.,0.));
#391=CARTESIAN_POINT('',(-49.,-11.,10.));
#392=CARTESIAN_POINT('Origin',(-6.5,7.7715611723761E-15,0.));
#393=CARTESIAN_POINT('',(-49.,9.,0.));
#394=CARTESIAN_POINT('',(-49.,11.,0.));
#395=CARTESIAN_POINT('',(-47.,11.,0.));
#396=CARTESIAN_POINT('Origin',(-47.,9.,0.));
#397=CARTESIAN_POINT('',(25.,11.,0.));
#398=CARTESIAN_POINT('',(25.,11.,0.));
#399=CARTESIAN_POINT('Origin',(25.,1.55431223447522E-14,0.));
#400=CARTESIAN_POINT('',(34.,1.66453044639848E-14,0.));
#401=CARTESIAN_POINT('Origin',(25.,1.55431223447522E-14,0.));
#402=CARTESIAN_POINT('Origin',(-47.,9.,0.));
#403=CARTESIAN_POINT('',(-49.,9.,10.));
#404=CARTESIAN_POINT('',(-47.,11.,10.));
#405=CARTESIAN_POINT('Origin',(-47.,9.,10.));
#406=CARTESIAN_POINT('',(-47.,11.,0.));
#407=CARTESIAN_POINT('',(-49.,9.,0.));
#408=CARTESIAN_POINT('Origin',(25.,11.,0.));
#409=CARTESIAN_POINT('',(25.,11.,10.));
#410=CARTESIAN_POINT('',(25.,11.,10.));
#411=CARTESIAN_POINT('',(25.,11.,0.));
#412=CARTESIAN_POINT('Origin',(25.,1.55431223447522E-14,0.));
#413=CARTESIAN_POINT('',(34.,1.55431223447522E-14,10.));
#414=CARTESIAN_POINT('Origin',(25.,1.55431223447522E-14,10.));
#415=CARTESIAN_POINT('',(34.,1.66453044639848E-14,0.));
#416=CARTESIAN_POINT('Origin',(-49.,11.,0.));
#417=CARTESIAN_POINT('',(-49.,11.,10.));
#418=CARTESIAN_POINT('Origin',(25.,1.55431223447522E-14,0.));
#419=CARTESIAN_POINT('Origin',(25.,1.55431223447522E-14,10.));
#420=CARTESIAN_POINT('Origin',(-6.5,7.7715611723761E-15,10.));
#421=UNCERTAINTY_MEASURE_WITH_UNIT(LENGTH_MEASURE(0.01),#425,
'DISTANCE_ACCURACY_VALUE',
'Maximum model space distance between geometric entities at asserted c
onnectivities');
#422=UNCERTAINTY_MEASURE_WITH_UNIT(LENGTH_MEASURE(0.01),#425,
'DISTANCE_ACCURACY_VALUE',
'Maximum model space distance between geometric entities at asserted c
onnectivities');
#423=(
GEOMETRIC_REPRESENTATION_CONTEXT(3)
GLOBAL_UNCERTAINTY_ASSIGNED_CONTEXT((#421))
GLOBAL_UNIT_ASSIGNED_CONTEXT((#425,#427,#428))
REPRESENTATION_CONTEXT('','3D')
);
#424=(
GEOMETRIC_REPRESENTATION_CONTEXT(3)
GLOBAL_UNCERTAINTY_ASSIGNED_CONTEXT((#422))
GLOBAL_UNIT_ASSIGNED_CONTEXT((#425,#427,#428))
REPRESENTATION_CONTEXT('','3D')
);
#425=(
LENGTH_UNIT()
NAMED_UNIT(*)
SI_UNIT(.MILLI.,.METRE.)
);
#426=(
LENGTH_UNIT()
NAMED_UNIT(*)
SI_UNIT(.CENTI.,.METRE.)
);
#427=(
NAMED_UNIT(*)
PLANE_ANGLE_UNIT()
SI_UNIT($,.RADIAN.)
);
#428=(
NAMED_UNIT(*)
SI_UNIT($,.STERADIAN.)
SOLID_ANGLE_UNIT()
);
#429=SHAPE_DEFINITION_REPRESENTATION(#430,#431);
#430=PRODUCT_DEFINITION_SHAPE('',$,#433);
#431=SHAPE_REPRESENTATION('',(#261),#423);
#432=PRODUCT_DEFINITION_CONTEXT('part definition',#437,'design');
#433=PRODUCT_DEFINITION('Support canon 12mm','Support canon 12mm',#434,
#432);
#434=PRODUCT_DEFINITION_FORMATION('',$,#439);
#435=PRODUCT_RELATED_PRODUCT_CATEGORY('Support canon 12mm',
'Support canon 12mm',(#439));
#436=APPLICATION_PROTOCOL_DEFINITION('international standard',
'automotive_design',2009,#437);
#437=APPLICATION_CONTEXT(
'Core Data for Automotive Mechanical Design Process');
#438=PRODUCT_CONTEXT('part definition',#437,'mechanical');
#439=PRODUCT('Support canon 12mm','Support canon 12mm',$,(#438));
#440=PRESENTATION_STYLE_ASSIGNMENT((#442));
#441=PRESENTATION_STYLE_ASSIGNMENT((#443));
#442=SURFACE_STYLE_USAGE(.BOTH.,#446);
#443=SURFACE_STYLE_USAGE(.BOTH.,#447);
#444=SURFACE_STYLE_RENDERING_WITH_PROPERTIES($,#454,(#445));
#445=SURFACE_STYLE_TRANSPARENT(0.);
#446=SURFACE_SIDE_STYLE('',(#448,#444));
#447=SURFACE_SIDE_STYLE('',(#449));
#448=SURFACE_STYLE_FILL_AREA(#450);
#449=SURFACE_STYLE_FILL_AREA(#451);
#450=FILL_AREA_STYLE('',(#452));
#451=FILL_AREA_STYLE('',(#453));
#452=FILL_AREA_STYLE_COLOUR('',#454);
#453=FILL_AREA_STYLE_COLOUR('',#455);
#454=COLOUR_RGB('',0.866666666666667,0.866666666666667,0.0509803921568627);
#455=COLOUR_RGB('',0.603921568627451,0.603921568627451,0.627450980392157);
ENDSEC;
END-ISO-10303-21;
