ISO-10303-21;
HEADER;
/* Generated by software containing ST-Developer
 * from STEP Tools, Inc. (www.steptools.com) 
 */

FILE_DESCRIPTION(
/* description */ (''),
/* implementation_level */ '2;1');

FILE_NAME(
/* name */ 
'C:\\VAULT_LOCAL\\WORKSPACE\\05_GSE\\MGSE\\GSE-052-MGSE-Torsional Thru
st Balance V2\\00. Drawings & steps\\CO-MEC-GSE-0050-01(A).stp',
/* time_stamp */ '2022-11-18T10:27:45+01:00',
/* author */ ('exolab-5mv6l'),
/* organization */ (''),
/* preprocessor_version */ 'ST-DEVELOPER v18.1',
/* originating_system */ 'Autodesk Inventor 2022',
/* authorisation */ '');

FILE_SCHEMA (('AUTOMOTIVE_DESIGN { 1 0 10303 214 3 1 1 }'));
ENDSEC;

DATA;
#10=MECHANICAL_DESIGN_GEOMETRIC_PRESENTATION_REPRESENTATION('',(#13),#577);
#11=SHAPE_REPRESENTATION_RELATIONSHIP('SRR','None',#584,#12);
#12=ADVANCED_BREP_SHAPE_REPRESENTATION('',(#14),#576);
#13=STYLED_ITEM('',(#593),#14);
#14=MANIFOLD_SOLID_BREP('Solide2',#340);
#15=FACE_BOUND('',#59,.T.);
#16=FACE_BOUND('',#66,.T.);
#17=FACE_BOUND('',#71,.T.);
#18=FACE_BOUND('',#72,.T.);
#19=FACE_BOUND('',#73,.T.);
#20=FACE_BOUND('',#75,.T.);
#21=CIRCLE('',#365,7.275);
#22=CIRCLE('',#366,7.275);
#23=CIRCLE('',#371,7.275);
#24=CIRCLE('',#372,2.15);
#25=CIRCLE('',#374,7.275);
#26=CIRCLE('',#378,2.15);
#27=CIRCLE('',#380,2.15);
#28=CIRCLE('',#381,2.15);
#29=CIRCLE('',#383,3.3);
#30=CIRCLE('',#385,3.3);
#31=CYLINDRICAL_SURFACE('',#364,7.275);
#32=CYLINDRICAL_SURFACE('',#373,7.275);
#33=CYLINDRICAL_SURFACE('',#377,2.15);
#34=CYLINDRICAL_SURFACE('',#379,2.15);
#35=CYLINDRICAL_SURFACE('',#384,3.3);
#36=FACE_OUTER_BOUND('',#53,.T.);
#37=FACE_OUTER_BOUND('',#54,.T.);
#38=FACE_OUTER_BOUND('',#55,.T.);
#39=FACE_OUTER_BOUND('',#56,.T.);
#40=FACE_OUTER_BOUND('',#57,.T.);
#41=FACE_OUTER_BOUND('',#58,.T.);
#42=FACE_OUTER_BOUND('',#60,.T.);
#43=FACE_OUTER_BOUND('',#61,.T.);
#44=FACE_OUTER_BOUND('',#62,.T.);
#45=FACE_OUTER_BOUND('',#63,.T.);
#46=FACE_OUTER_BOUND('',#64,.T.);
#47=FACE_OUTER_BOUND('',#65,.T.);
#48=FACE_OUTER_BOUND('',#67,.T.);
#49=FACE_OUTER_BOUND('',#68,.T.);
#50=FACE_OUTER_BOUND('',#69,.T.);
#51=FACE_OUTER_BOUND('',#70,.T.);
#52=FACE_OUTER_BOUND('',#74,.T.);
#53=EDGE_LOOP('',(#221,#222,#223,#224));
#54=EDGE_LOOP('',(#225,#226,#227,#228));
#55=EDGE_LOOP('',(#229,#230,#231,#232));
#56=EDGE_LOOP('',(#233,#234,#235,#236,#237,#238,#239,#240));
#57=EDGE_LOOP('',(#241,#242,#243,#244));
#58=EDGE_LOOP('',(#245,#246,#247,#248,#249,#250));
#59=EDGE_LOOP('',(#251));
#60=EDGE_LOOP('',(#252,#253,#254,#255));
#61=EDGE_LOOP('',(#256,#257,#258,#259));
#62=EDGE_LOOP('',(#260,#261,#262,#263,#264,#265,#266,#267));
#63=EDGE_LOOP('',(#268,#269,#270,#271));
#64=EDGE_LOOP('',(#272,#273,#274,#275));
#65=EDGE_LOOP('',(#276,#277,#278,#279,#280,#281,#282,#283));
#66=EDGE_LOOP('',(#284));
#67=EDGE_LOOP('',(#285,#286,#287,#288));
#68=EDGE_LOOP('',(#289,#290,#291,#292));
#69=EDGE_LOOP('',(#293,#294,#295,#296));
#70=EDGE_LOOP('',(#297,#298,#299,#300));
#71=EDGE_LOOP('',(#301));
#72=EDGE_LOOP('',(#302));
#73=EDGE_LOOP('',(#303));
#74=EDGE_LOOP('',(#304,#305,#306,#307,#308,#309));
#75=EDGE_LOOP('',(#310));
#76=LINE('',#485,#111);
#77=LINE('',#487,#112);
#78=LINE('',#489,#113);
#79=LINE('',#490,#114);
#80=LINE('',#495,#115);
#81=LINE('',#499,#116);
#82=LINE('',#501,#117);
#83=LINE('',#502,#118);
#84=LINE('',#505,#119);
#85=LINE('',#507,#120);
#86=LINE('',#509,#121);
#87=LINE('',#511,#122);
#88=LINE('',#513,#123);
#89=LINE('',#515,#124);
#90=LINE('',#516,#125);
#91=LINE('',#519,#126);
#92=LINE('',#521,#127);
#93=LINE('',#522,#128);
#94=LINE('',#527,#129);
#95=LINE('',#529,#130);
#96=LINE('',#530,#131);
#97=LINE('',#536,#132);
#98=LINE('',#539,#133);
#99=LINE('',#540,#134);
#100=LINE('',#543,#135);
#101=LINE('',#545,#136);
#102=LINE('',#547,#137);
#103=LINE('',#548,#138);
#104=LINE('',#549,#139);
#105=LINE('',#553,#140);
#106=LINE('',#558,#141);
#107=LINE('',#565,#142);
#108=LINE('',#568,#143);
#109=LINE('',#569,#144);
#110=LINE('',#571,#145);
#111=VECTOR('',#394,10.);
#112=VECTOR('',#395,10.);
#113=VECTOR('',#396,10.);
#114=VECTOR('',#397,10.);
#115=VECTOR('',#402,10.);
#116=VECTOR('',#407,10.);
#117=VECTOR('',#408,10.);
#118=VECTOR('',#409,10.);
#119=VECTOR('',#412,10.);
#120=VECTOR('',#413,10.);
#121=VECTOR('',#414,10.);
#122=VECTOR('',#415,10.);
#123=VECTOR('',#416,10.);
#124=VECTOR('',#417,10.);
#125=VECTOR('',#418,10.);
#126=VECTOR('',#421,10.);
#127=VECTOR('',#422,10.);
#128=VECTOR('',#423,10.);
#129=VECTOR('',#428,10.);
#130=VECTOR('',#429,10.);
#131=VECTOR('',#430,10.);
#132=VECTOR('',#437,10.);
#133=VECTOR('',#440,10.);
#134=VECTOR('',#441,10.);
#135=VECTOR('',#444,10.);
#136=VECTOR('',#445,10.);
#137=VECTOR('',#446,10.);
#138=VECTOR('',#447,10.);
#139=VECTOR('',#448,10.);
#140=VECTOR('',#453,2.15);
#141=VECTOR('',#458,2.15);
#142=VECTOR('',#467,3.3);
#143=VECTOR('',#472,10.);
#144=VECTOR('',#473,10.);
#145=VECTOR('',#476,10.);
#146=VERTEX_POINT('',#483);
#147=VERTEX_POINT('',#484);
#148=VERTEX_POINT('',#486);
#149=VERTEX_POINT('',#488);
#150=VERTEX_POINT('',#492);
#151=VERTEX_POINT('',#494);
#152=VERTEX_POINT('',#498);
#153=VERTEX_POINT('',#500);
#154=VERTEX_POINT('',#504);
#155=VERTEX_POINT('',#506);
#156=VERTEX_POINT('',#508);
#157=VERTEX_POINT('',#510);
#158=VERTEX_POINT('',#512);
#159=VERTEX_POINT('',#514);
#160=VERTEX_POINT('',#518);
#161=VERTEX_POINT('',#520);
#162=VERTEX_POINT('',#524);
#163=VERTEX_POINT('',#526);
#164=VERTEX_POINT('',#528);
#165=VERTEX_POINT('',#531);
#166=VERTEX_POINT('',#534);
#167=VERTEX_POINT('',#538);
#168=VERTEX_POINT('',#542);
#169=VERTEX_POINT('',#544);
#170=VERTEX_POINT('',#546);
#171=VERTEX_POINT('',#551);
#172=VERTEX_POINT('',#555);
#173=VERTEX_POINT('',#557);
#174=VERTEX_POINT('',#561);
#175=VERTEX_POINT('',#564);
#176=EDGE_CURVE('',#146,#147,#76,.T.);
#177=EDGE_CURVE('',#147,#148,#77,.T.);
#178=EDGE_CURVE('',#148,#149,#78,.F.);
#179=EDGE_CURVE('',#149,#146,#79,.T.);
#180=EDGE_CURVE('',#150,#149,#21,.T.);
#181=EDGE_CURVE('',#151,#150,#80,.T.);
#182=EDGE_CURVE('',#146,#151,#22,.T.);
#183=EDGE_CURVE('',#152,#151,#81,.T.);
#184=EDGE_CURVE('',#150,#153,#82,.F.);
#185=EDGE_CURVE('',#153,#152,#83,.T.);
#186=EDGE_CURVE('',#153,#154,#84,.T.);
#187=EDGE_CURVE('',#155,#154,#85,.T.);
#188=EDGE_CURVE('',#155,#156,#86,.T.);
#189=EDGE_CURVE('',#156,#157,#87,.T.);
#190=EDGE_CURVE('',#158,#157,#88,.T.);
#191=EDGE_CURVE('',#159,#158,#89,.T.);
#192=EDGE_CURVE('',#159,#152,#90,.T.);
#193=EDGE_CURVE('',#160,#155,#91,.T.);
#194=EDGE_CURVE('',#154,#161,#92,.F.);
#195=EDGE_CURVE('',#161,#160,#93,.T.);
#196=EDGE_CURVE('',#160,#162,#23,.T.);
#197=EDGE_CURVE('',#163,#162,#94,.T.);
#198=EDGE_CURVE('',#164,#163,#95,.T.);
#199=EDGE_CURVE('',#156,#164,#96,.T.);
#200=EDGE_CURVE('',#165,#165,#24,.T.);
#201=EDGE_CURVE('',#166,#161,#25,.T.);
#202=EDGE_CURVE('',#162,#166,#97,.T.);
#203=EDGE_CURVE('',#166,#167,#98,.F.);
#204=EDGE_CURVE('',#167,#163,#99,.T.);
#205=EDGE_CURVE('',#147,#168,#100,.T.);
#206=EDGE_CURVE('',#168,#169,#101,.T.);
#207=EDGE_CURVE('',#170,#169,#102,.T.);
#208=EDGE_CURVE('',#164,#170,#103,.T.);
#209=EDGE_CURVE('',#167,#148,#104,.T.);
#210=EDGE_CURVE('',#171,#171,#26,.T.);
#211=EDGE_CURVE('',#171,#165,#105,.T.);
#212=EDGE_CURVE('',#172,#172,#27,.T.);
#213=EDGE_CURVE('',#172,#173,#106,.T.);
#214=EDGE_CURVE('',#173,#173,#28,.T.);
#215=EDGE_CURVE('',#174,#174,#29,.T.);
#216=EDGE_CURVE('',#174,#175,#107,.T.);
#217=EDGE_CURVE('',#175,#175,#30,.T.);
#218=EDGE_CURVE('',#168,#159,#108,.T.);
#219=EDGE_CURVE('',#169,#158,#109,.T.);
#220=EDGE_CURVE('',#157,#170,#110,.T.);
#221=ORIENTED_EDGE('',*,*,#176,.T.);
#222=ORIENTED_EDGE('',*,*,#177,.T.);
#223=ORIENTED_EDGE('',*,*,#178,.T.);
#224=ORIENTED_EDGE('',*,*,#179,.T.);
#225=ORIENTED_EDGE('',*,*,#179,.F.);
#226=ORIENTED_EDGE('',*,*,#180,.F.);
#227=ORIENTED_EDGE('',*,*,#181,.F.);
#228=ORIENTED_EDGE('',*,*,#182,.F.);
#229=ORIENTED_EDGE('',*,*,#183,.T.);
#230=ORIENTED_EDGE('',*,*,#181,.T.);
#231=ORIENTED_EDGE('',*,*,#184,.T.);
#232=ORIENTED_EDGE('',*,*,#185,.T.);
#233=ORIENTED_EDGE('',*,*,#185,.F.);
#234=ORIENTED_EDGE('',*,*,#186,.T.);
#235=ORIENTED_EDGE('',*,*,#187,.F.);
#236=ORIENTED_EDGE('',*,*,#188,.T.);
#237=ORIENTED_EDGE('',*,*,#189,.T.);
#238=ORIENTED_EDGE('',*,*,#190,.F.);
#239=ORIENTED_EDGE('',*,*,#191,.F.);
#240=ORIENTED_EDGE('',*,*,#192,.T.);
#241=ORIENTED_EDGE('',*,*,#193,.T.);
#242=ORIENTED_EDGE('',*,*,#187,.T.);
#243=ORIENTED_EDGE('',*,*,#194,.T.);
#244=ORIENTED_EDGE('',*,*,#195,.T.);
#245=ORIENTED_EDGE('',*,*,#193,.F.);
#246=ORIENTED_EDGE('',*,*,#196,.T.);
#247=ORIENTED_EDGE('',*,*,#197,.F.);
#248=ORIENTED_EDGE('',*,*,#198,.F.);
#249=ORIENTED_EDGE('',*,*,#199,.F.);
#250=ORIENTED_EDGE('',*,*,#188,.F.);
#251=ORIENTED_EDGE('',*,*,#200,.T.);
#252=ORIENTED_EDGE('',*,*,#195,.F.);
#253=ORIENTED_EDGE('',*,*,#201,.F.);
#254=ORIENTED_EDGE('',*,*,#202,.F.);
#255=ORIENTED_EDGE('',*,*,#196,.F.);
#256=ORIENTED_EDGE('',*,*,#197,.T.);
#257=ORIENTED_EDGE('',*,*,#202,.T.);
#258=ORIENTED_EDGE('',*,*,#203,.T.);
#259=ORIENTED_EDGE('',*,*,#204,.T.);
#260=ORIENTED_EDGE('',*,*,#177,.F.);
#261=ORIENTED_EDGE('',*,*,#205,.T.);
#262=ORIENTED_EDGE('',*,*,#206,.T.);
#263=ORIENTED_EDGE('',*,*,#207,.F.);
#264=ORIENTED_EDGE('',*,*,#208,.F.);
#265=ORIENTED_EDGE('',*,*,#198,.T.);
#266=ORIENTED_EDGE('',*,*,#204,.F.);
#267=ORIENTED_EDGE('',*,*,#209,.T.);
#268=ORIENTED_EDGE('',*,*,#210,.F.);
#269=ORIENTED_EDGE('',*,*,#211,.T.);
#270=ORIENTED_EDGE('',*,*,#200,.F.);
#271=ORIENTED_EDGE('',*,*,#211,.F.);
#272=ORIENTED_EDGE('',*,*,#212,.F.);
#273=ORIENTED_EDGE('',*,*,#213,.T.);
#274=ORIENTED_EDGE('',*,*,#214,.F.);
#275=ORIENTED_EDGE('',*,*,#213,.F.);
#276=ORIENTED_EDGE('',*,*,#186,.F.);
#277=ORIENTED_EDGE('',*,*,#184,.F.);
#278=ORIENTED_EDGE('',*,*,#180,.T.);
#279=ORIENTED_EDGE('',*,*,#178,.F.);
#280=ORIENTED_EDGE('',*,*,#209,.F.);
#281=ORIENTED_EDGE('',*,*,#203,.F.);
#282=ORIENTED_EDGE('',*,*,#201,.T.);
#283=ORIENTED_EDGE('',*,*,#194,.F.);
#284=ORIENTED_EDGE('',*,*,#215,.F.);
#285=ORIENTED_EDGE('',*,*,#215,.T.);
#286=ORIENTED_EDGE('',*,*,#216,.T.);
#287=ORIENTED_EDGE('',*,*,#217,.F.);
#288=ORIENTED_EDGE('',*,*,#216,.F.);
#289=ORIENTED_EDGE('',*,*,#218,.T.);
#290=ORIENTED_EDGE('',*,*,#191,.T.);
#291=ORIENTED_EDGE('',*,*,#219,.F.);
#292=ORIENTED_EDGE('',*,*,#206,.F.);
#293=ORIENTED_EDGE('',*,*,#199,.T.);
#294=ORIENTED_EDGE('',*,*,#208,.T.);
#295=ORIENTED_EDGE('',*,*,#220,.F.);
#296=ORIENTED_EDGE('',*,*,#189,.F.);
#297=ORIENTED_EDGE('',*,*,#220,.T.);
#298=ORIENTED_EDGE('',*,*,#207,.T.);
#299=ORIENTED_EDGE('',*,*,#219,.T.);
#300=ORIENTED_EDGE('',*,*,#190,.T.);
#301=ORIENTED_EDGE('',*,*,#210,.T.);
#302=ORIENTED_EDGE('',*,*,#212,.T.);
#303=ORIENTED_EDGE('',*,*,#217,.T.);
#304=ORIENTED_EDGE('',*,*,#176,.F.);
#305=ORIENTED_EDGE('',*,*,#182,.T.);
#306=ORIENTED_EDGE('',*,*,#183,.F.);
#307=ORIENTED_EDGE('',*,*,#192,.F.);
#308=ORIENTED_EDGE('',*,*,#218,.F.);
#309=ORIENTED_EDGE('',*,*,#205,.F.);
#310=ORIENTED_EDGE('',*,*,#214,.T.);
#311=PLANE('',#363);
#312=PLANE('',#367);
#313=PLANE('',#368);
#314=PLANE('',#369);
#315=PLANE('',#370);
#316=PLANE('',#375);
#317=PLANE('',#376);
#318=PLANE('',#382);
#319=PLANE('',#386);
#320=PLANE('',#387);
#321=PLANE('',#388);
#322=PLANE('',#389);
#323=ADVANCED_FACE('',(#36),#311,.T.);
#324=ADVANCED_FACE('',(#37),#31,.F.);
#325=ADVANCED_FACE('',(#38),#312,.T.);
#326=ADVANCED_FACE('',(#39),#313,.T.);
#327=ADVANCED_FACE('',(#40),#314,.T.);
#328=ADVANCED_FACE('',(#41,#15),#315,.F.);
#329=ADVANCED_FACE('',(#42),#32,.F.);
#330=ADVANCED_FACE('',(#43),#316,.T.);
#331=ADVANCED_FACE('',(#44),#317,.T.);
#332=ADVANCED_FACE('',(#45),#33,.F.);
#333=ADVANCED_FACE('',(#46),#34,.F.);
#334=ADVANCED_FACE('',(#47,#16),#318,.T.);
#335=ADVANCED_FACE('',(#48),#35,.F.);
#336=ADVANCED_FACE('',(#49),#319,.T.);
#337=ADVANCED_FACE('',(#50),#320,.T.);
#338=ADVANCED_FACE('',(#51,#17,#18,#19),#321,.T.);
#339=ADVANCED_FACE('',(#52,#20),#322,.F.);
#340=CLOSED_SHELL('',(#323,#324,#325,#326,#327,#328,#329,#330,#331,#332,
#333,#334,#335,#336,#337,#338,#339));
#341=DERIVED_UNIT_ELEMENT(#344,1.);
#342=DERIVED_UNIT_ELEMENT(#579,-3.);
#343=DIMENSIONAL_EXPONENTS(1.,0.,0.,0.,0.,0.,0.);
#344=(
CONVERSION_BASED_UNIT('gram',#346)
MASS_UNIT()
NAMED_UNIT(#343)
);
#345=(
MASS_UNIT()
NAMED_UNIT(*)
SI_UNIT(.KILO.,.GRAM.)
);
#346=MASS_MEASURE_WITH_UNIT(MASS_MEASURE(0.001),#345);
#347=DERIVED_UNIT((#341,#342));
#348=MEASURE_REPRESENTATION_ITEM('density measure',
POSITIVE_RATIO_MEASURE(2.7),#347);
#349=PROPERTY_DEFINITION_REPRESENTATION(#354,#351);
#350=PROPERTY_DEFINITION_REPRESENTATION(#355,#352);
#351=REPRESENTATION('material name',(#353),#576);
#352=REPRESENTATION('density',(#348),#576);
#353=DESCRIPTIVE_REPRESENTATION_ITEM('Aluminum 6061-T6',
'Aluminum 6061-T6');
#354=PROPERTY_DEFINITION('material property','material name',#586);
#355=PROPERTY_DEFINITION('material property','density of part',#586);
#356=DATE_TIME_ROLE('creation_date');
#357=APPLIED_DATE_AND_TIME_ASSIGNMENT(#358,#356,(#586));
#358=DATE_AND_TIME(#359,#360);
#359=CALENDAR_DATE(2022,3,11);
#360=LOCAL_TIME(0,0,0.,#361);
#361=COORDINATED_UNIVERSAL_TIME_OFFSET(0,0,.BEHIND.);
#362=AXIS2_PLACEMENT_3D('placement',#481,#390,#391);
#363=AXIS2_PLACEMENT_3D('',#482,#392,#393);
#364=AXIS2_PLACEMENT_3D('',#491,#398,#399);
#365=AXIS2_PLACEMENT_3D('',#493,#400,#401);
#366=AXIS2_PLACEMENT_3D('',#496,#403,#404);
#367=AXIS2_PLACEMENT_3D('',#497,#405,#406);
#368=AXIS2_PLACEMENT_3D('',#503,#410,#411);
#369=AXIS2_PLACEMENT_3D('',#517,#419,#420);
#370=AXIS2_PLACEMENT_3D('',#523,#424,#425);
#371=AXIS2_PLACEMENT_3D('',#525,#426,#427);
#372=AXIS2_PLACEMENT_3D('',#532,#431,#432);
#373=AXIS2_PLACEMENT_3D('',#533,#433,#434);
#374=AXIS2_PLACEMENT_3D('',#535,#435,#436);
#375=AXIS2_PLACEMENT_3D('',#537,#438,#439);
#376=AXIS2_PLACEMENT_3D('',#541,#442,#443);
#377=AXIS2_PLACEMENT_3D('',#550,#449,#450);
#378=AXIS2_PLACEMENT_3D('',#552,#451,#452);
#379=AXIS2_PLACEMENT_3D('',#554,#454,#455);
#380=AXIS2_PLACEMENT_3D('',#556,#456,#457);
#381=AXIS2_PLACEMENT_3D('',#559,#459,#460);
#382=AXIS2_PLACEMENT_3D('',#560,#461,#462);
#383=AXIS2_PLACEMENT_3D('',#562,#463,#464);
#384=AXIS2_PLACEMENT_3D('',#563,#465,#466);
#385=AXIS2_PLACEMENT_3D('',#566,#468,#469);
#386=AXIS2_PLACEMENT_3D('',#567,#470,#471);
#387=AXIS2_PLACEMENT_3D('',#570,#474,#475);
#388=AXIS2_PLACEMENT_3D('',#572,#477,#478);
#389=AXIS2_PLACEMENT_3D('',#573,#479,#480);
#390=DIRECTION('axis',(0.,0.,1.));
#391=DIRECTION('refdir',(1.,0.,0.));
#392=DIRECTION('center_axis',(0.,0.426768954855853,-0.904360690859152));
#393=DIRECTION('ref_axis',(-1.,0.,0.));
#394=DIRECTION('',(0.,0.904360690859152,0.426768954855853));
#395=DIRECTION('',(1.,0.,0.));
#396=DIRECTION('',(0.,0.904360690859152,0.426768954855853));
#397=DIRECTION('',(-1.,0.,0.));
#398=DIRECTION('center_axis',(-1.,0.,0.));
#399=DIRECTION('ref_axis',(0.,0.,1.));
#400=DIRECTION('center_axis',(-1.,0.,0.));
#401=DIRECTION('ref_axis',(0.,0.,1.));
#402=DIRECTION('',(1.,0.,0.));
#403=DIRECTION('center_axis',(1.,0.,0.));
#404=DIRECTION('ref_axis',(0.,0.,1.));
#405=DIRECTION('center_axis',(0.,-0.42676895485585,-0.904360690859153));
#406=DIRECTION('ref_axis',(-1.,0.,0.));
#407=DIRECTION('',(0.,0.904360690859153,-0.42676895485585));
#408=DIRECTION('',(0.,0.904360690859153,-0.42676895485585));
#409=DIRECTION('',(-1.,0.,0.));
#410=DIRECTION('center_axis',(0.,-1.,-1.90819582357449E-16));
#411=DIRECTION('ref_axis',(0.,1.90819582357449E-16,-1.));
#412=DIRECTION('',(0.,1.90819582357449E-16,-1.));
#413=DIRECTION('',(1.,0.,0.));
#414=DIRECTION('',(0.,1.90819582357449E-16,-1.));
#415=DIRECTION('',(1.,0.,0.));
#416=DIRECTION('',(0.,1.90819582357449E-16,-1.));
#417=DIRECTION('',(1.,0.,0.));
#418=DIRECTION('',(0.,1.90819582357449E-16,-1.));
#419=DIRECTION('center_axis',(0.,-0.426768954855852,0.904360690859153));
#420=DIRECTION('ref_axis',(1.,0.,0.));
#421=DIRECTION('',(0.,-0.904360690859153,-0.426768954855852));
#422=DIRECTION('',(0.,-0.904360690859153,-0.426768954855852));
#423=DIRECTION('',(-1.,0.,0.));
#424=DIRECTION('center_axis',(1.,0.,0.));
#425=DIRECTION('ref_axis',(0.,0.,-1.));
#426=DIRECTION('center_axis',(1.,0.,0.));
#427=DIRECTION('ref_axis',(0.,0.,1.));
#428=DIRECTION('',(0.,-0.904360690859154,0.426768954855849));
#429=DIRECTION('',(0.,-2.08166817117217E-16,1.));
#430=DIRECTION('',(0.,1.,0.));
#431=DIRECTION('center_axis',(1.,0.,0.));
#432=DIRECTION('ref_axis',(0.,0.,-1.));
#433=DIRECTION('center_axis',(-1.,0.,0.));
#434=DIRECTION('ref_axis',(0.,-1.22464679914735E-16,-1.));
#435=DIRECTION('center_axis',(-1.,0.,0.));
#436=DIRECTION('ref_axis',(0.,0.,1.));
#437=DIRECTION('',(1.,0.,0.));
#438=DIRECTION('center_axis',(0.,0.426768954855849,0.904360690859154));
#439=DIRECTION('ref_axis',(1.,0.,0.));
#440=DIRECTION('',(0.,-0.904360690859154,0.426768954855849));
#441=DIRECTION('',(-1.,0.,0.));
#442=DIRECTION('center_axis',(0.,1.,2.08166817117217E-16));
#443=DIRECTION('ref_axis',(0.,-2.08166817117217E-16,1.));
#444=DIRECTION('',(0.,-2.08166817117217E-16,1.));
#445=DIRECTION('',(1.,0.,0.));
#446=DIRECTION('',(0.,-2.08166817117217E-16,1.));
#447=DIRECTION('',(1.,0.,0.));
#448=DIRECTION('',(0.,-2.08166817117217E-16,1.));
#449=DIRECTION('center_axis',(1.,0.,0.));
#450=DIRECTION('ref_axis',(0.,0.,-1.));
#451=DIRECTION('center_axis',(-1.,0.,0.));
#452=DIRECTION('ref_axis',(0.,0.,-1.));
#453=DIRECTION('',(-1.,0.,0.));
#454=DIRECTION('center_axis',(1.,0.,0.));
#455=DIRECTION('ref_axis',(0.,0.,-1.));
#456=DIRECTION('center_axis',(-1.,0.,0.));
#457=DIRECTION('ref_axis',(0.,0.,-1.));
#458=DIRECTION('',(-1.,0.,0.));
#459=DIRECTION('center_axis',(1.,0.,0.));
#460=DIRECTION('ref_axis',(0.,0.,-1.));
#461=DIRECTION('center_axis',(-1.,0.,0.));
#462=DIRECTION('ref_axis',(0.,0.,1.));
#463=DIRECTION('center_axis',(-1.,0.,0.));
#464=DIRECTION('ref_axis',(0.,0.,1.));
#465=DIRECTION('center_axis',(-1.,0.,0.));
#466=DIRECTION('ref_axis',(0.,0.,1.));
#467=DIRECTION('',(1.,0.,0.));
#468=DIRECTION('center_axis',(-1.,0.,0.));
#469=DIRECTION('ref_axis',(0.,0.,1.));
#470=DIRECTION('center_axis',(0.,0.,1.));
#471=DIRECTION('ref_axis',(0.,-1.,0.));
#472=DIRECTION('',(0.,-1.,0.));
#473=DIRECTION('',(0.,-1.,0.));
#474=DIRECTION('center_axis',(0.,0.,-1.));
#475=DIRECTION('ref_axis',(0.,1.,0.));
#476=DIRECTION('',(0.,1.,0.));
#477=DIRECTION('center_axis',(1.,0.,0.));
#478=DIRECTION('ref_axis',(0.,0.,-1.));
#479=DIRECTION('center_axis',(1.,0.,0.));
#480=DIRECTION('ref_axis',(0.,0.,-1.));
#481=CARTESIAN_POINT('',(0.,0.,0.));
#482=CARTESIAN_POINT('Origin',(3.19,9.61404693314933,-9.89766156871121));
#483=CARTESIAN_POINT('',(0.,9.22809386629865,-10.07979330954));
#484=CARTESIAN_POINT('',(0.,10.,-9.71552982788246));
#485=CARTESIAN_POINT('',(-2.77555756156289E-16,6.54959755041637,-11.3437791117406));
#486=CARTESIAN_POINT('',(6.38,10.,-9.71552982788246));
#487=CARTESIAN_POINT('',(3.19,10.,-9.71552982788246));
#488=CARTESIAN_POINT('',(6.38,9.22809386629865,-10.07979330954));
#489=CARTESIAN_POINT('',(6.38,6.54959755041637,-11.3437791117406));
#490=CARTESIAN_POINT('',(3.19,9.22809386629865,-10.07979330954));
#491=CARTESIAN_POINT('Origin',(3.19,5.,-16.));
#492=CARTESIAN_POINT('',(6.38,0.771906133701351,-10.07979330954));
#493=CARTESIAN_POINT('Origin',(6.38,5.,-16.));
#494=CARTESIAN_POINT('',(0.,0.771906133701351,-10.07979330954));
#495=CARTESIAN_POINT('',(3.19,0.771906133701351,-10.07979330954));
#496=CARTESIAN_POINT('Origin',(0.,5.,-16.));
#497=CARTESIAN_POINT('Origin',(3.19,0.385953066850677,-9.89766156871121));
#498=CARTESIAN_POINT('',(0.,1.85391334413787E-15,-9.71552982788246));
#499=CARTESIAN_POINT('',(0.,3.45040244958363,-11.3437791117406));
#500=CARTESIAN_POINT('',(6.38,1.87350135405495E-15,-9.71552982788246));
#501=CARTESIAN_POINT('',(6.38,3.45040244958363,-11.3437791117406));
#502=CARTESIAN_POINT('',(3.19,1.87350135405495E-15,-9.71552982788246));
#503=CARTESIAN_POINT('Origin',(0.,0.,0.));
#504=CARTESIAN_POINT('',(6.38,4.23272528138341E-15,-22.2844701721175));
#505=CARTESIAN_POINT('',(6.38,1.66533453693773E-15,-8.));
#506=CARTESIAN_POINT('',(0.,4.25231329130049E-15,-22.2844701721175));
#507=CARTESIAN_POINT('',(3.19,4.23272528138341E-15,-22.2844701721175));
#508=CARTESIAN_POINT('',(0.,6.10622663543836E-15,-32.));
#509=CARTESIAN_POINT('',(0.,0.,0.));
#510=CARTESIAN_POINT('',(9.,6.10622663543836E-15,-32.));
#511=CARTESIAN_POINT('',(0.,6.10622663543836E-15,-32.));
#512=CARTESIAN_POINT('',(9.,0.,0.));
#513=CARTESIAN_POINT('',(9.,0.,0.));
#514=CARTESIAN_POINT('',(0.,0.,0.));
#515=CARTESIAN_POINT('',(0.,0.,0.));
#516=CARTESIAN_POINT('',(0.,0.,0.));
#517=CARTESIAN_POINT('Origin',(3.19,0.385953066850678,-22.1023384312888));
#518=CARTESIAN_POINT('',(0.,0.771906133701353,-21.92020669046));
#519=CARTESIAN_POINT('',(0.,3.45040244958363,-20.6562208882594));
#520=CARTESIAN_POINT('',(6.38,0.771906133701353,-21.92020669046));
#521=CARTESIAN_POINT('',(6.38,3.45040244958363,-20.6562208882594));
#522=CARTESIAN_POINT('',(3.19,0.771906133701353,-21.92020669046));
#523=CARTESIAN_POINT('Origin',(0.,5.,-16.));
#524=CARTESIAN_POINT('',(0.,9.22809386629865,-21.92020669046));
#525=CARTESIAN_POINT('Origin',(0.,5.,-16.));
#526=CARTESIAN_POINT('',(0.,10.,-22.2844701721175));
#527=CARTESIAN_POINT('',(0.,6.54959755041637,-20.6562208882594));
#528=CARTESIAN_POINT('',(0.,10.,-32.));
#529=CARTESIAN_POINT('',(0.,10.,-32.));
#530=CARTESIAN_POINT('',(0.,6.66133814775094E-15,-32.));
#531=CARTESIAN_POINT('',(0.,5.00000000000001,-26.35));
#532=CARTESIAN_POINT('Origin',(0.,5.00000000000001,-28.5));
#533=CARTESIAN_POINT('Origin',(3.19,5.,-16.));
#534=CARTESIAN_POINT('',(6.38,9.22809386629865,-21.92020669046));
#535=CARTESIAN_POINT('Origin',(6.38,5.,-16.));
#536=CARTESIAN_POINT('',(3.19,9.22809386629865,-21.92020669046));
#537=CARTESIAN_POINT('Origin',(3.19,9.61404693314933,-22.1023384312888));
#538=CARTESIAN_POINT('',(6.38,10.,-22.2844701721175));
#539=CARTESIAN_POINT('',(6.38,6.54959755041637,-20.6562208882594));
#540=CARTESIAN_POINT('',(3.19,10.,-22.2844701721175));
#541=CARTESIAN_POINT('Origin',(0.,10.,-32.));
#542=CARTESIAN_POINT('',(0.,10.,0.));
#543=CARTESIAN_POINT('',(0.,10.,-32.));
#544=CARTESIAN_POINT('',(9.,10.,0.));
#545=CARTESIAN_POINT('',(0.,10.,0.));
#546=CARTESIAN_POINT('',(9.,10.,-32.));
#547=CARTESIAN_POINT('',(9.,10.,-32.));
#548=CARTESIAN_POINT('',(0.,10.,-32.));
#549=CARTESIAN_POINT('',(6.38,10.,-24.));
#550=CARTESIAN_POINT('Origin',(-25.7131099154196,5.00000000000001,-28.5));
#551=CARTESIAN_POINT('',(9.,5.00000000000001,-26.35));
#552=CARTESIAN_POINT('Origin',(9.,5.00000000000001,-28.5));
#553=CARTESIAN_POINT('',(-25.7131099154196,5.00000000000001,-26.35));
#554=CARTESIAN_POINT('Origin',(-25.7131099154196,5.,-3.5));
#555=CARTESIAN_POINT('',(9.,5.,-1.35));
#556=CARTESIAN_POINT('Origin',(9.,5.,-3.5));
#557=CARTESIAN_POINT('',(0.,5.,-1.35));
#558=CARTESIAN_POINT('',(-25.7131099154196,5.,-1.35));
#559=CARTESIAN_POINT('Origin',(0.,5.,-3.5));
#560=CARTESIAN_POINT('Origin',(6.38,5.,-16.));
#561=CARTESIAN_POINT('',(6.38,5.,-19.3));
#562=CARTESIAN_POINT('Origin',(6.38,5.,-16.));
#563=CARTESIAN_POINT('Origin',(34.7131099154196,5.,-16.));
#564=CARTESIAN_POINT('',(9.,5.,-19.3));
#565=CARTESIAN_POINT('',(34.7131099154196,5.,-19.3));
#566=CARTESIAN_POINT('Origin',(9.,5.,-16.));
#567=CARTESIAN_POINT('Origin',(0.,10.,0.));
#568=CARTESIAN_POINT('',(0.,10.,0.));
#569=CARTESIAN_POINT('',(9.,10.,0.));
#570=CARTESIAN_POINT('Origin',(0.,6.10622663543836E-15,-32.));
#571=CARTESIAN_POINT('',(9.,6.66133814775094E-15,-32.));
#572=CARTESIAN_POINT('Origin',(9.,5.,-16.));
#573=CARTESIAN_POINT('Origin',(0.,5.,-16.));
#574=UNCERTAINTY_MEASURE_WITH_UNIT(LENGTH_MEASURE(0.01),#578,
'DISTANCE_ACCURACY_VALUE',
'Maximum model space distance between geometric entities at asserted c
onnectivities');
#575=UNCERTAINTY_MEASURE_WITH_UNIT(LENGTH_MEASURE(0.01),#578,
'DISTANCE_ACCURACY_VALUE',
'Maximum model space distance between geometric entities at asserted c
onnectivities');
#576=(
GEOMETRIC_REPRESENTATION_CONTEXT(3)
GLOBAL_UNCERTAINTY_ASSIGNED_CONTEXT((#574))
GLOBAL_UNIT_ASSIGNED_CONTEXT((#578,#580,#581))
REPRESENTATION_CONTEXT('','3D')
);
#577=(
GEOMETRIC_REPRESENTATION_CONTEXT(3)
GLOBAL_UNCERTAINTY_ASSIGNED_CONTEXT((#575))
GLOBAL_UNIT_ASSIGNED_CONTEXT((#578,#580,#581))
REPRESENTATION_CONTEXT('','3D')
);
#578=(
LENGTH_UNIT()
NAMED_UNIT(*)
SI_UNIT(.MILLI.,.METRE.)
);
#579=(
LENGTH_UNIT()
NAMED_UNIT(*)
SI_UNIT(.CENTI.,.METRE.)
);
#580=(
NAMED_UNIT(*)
PLANE_ANGLE_UNIT()
SI_UNIT($,.RADIAN.)
);
#581=(
NAMED_UNIT(*)
SI_UNIT($,.STERADIAN.)
SOLID_ANGLE_UNIT()
);
#582=SHAPE_DEFINITION_REPRESENTATION(#583,#584);
#583=PRODUCT_DEFINITION_SHAPE('',$,#586);
#584=SHAPE_REPRESENTATION('',(#362),#576);
#585=PRODUCT_DEFINITION_CONTEXT('part definition',#590,'design');
#586=PRODUCT_DEFINITION(
'CO-MEC-GSE-0050-01(A) (Base position plate holder)',
'CO-MEC-GSE-0050-01(A) (Base position plate holder)',#587,#585);
#587=PRODUCT_DEFINITION_FORMATION('A',$,#592);
#588=PRODUCT_RELATED_PRODUCT_CATEGORY(
'CO-MEC-GSE-0050-01(A) (Base position plate holder)',
'CO-MEC-GSE-0050-01(A) (Base position plate holder)',(#592));
#589=APPLICATION_PROTOCOL_DEFINITION('international standard',
'automotive_design',2009,#590);
#590=APPLICATION_CONTEXT(
'Core Data for Automotive Mechanical Design Process');
#591=PRODUCT_CONTEXT('part definition',#590,'mechanical');
#592=PRODUCT('CO-MEC-GSE-0050-01(A) (Base position plate holder)',
'CO-MEC-GSE-0050-01(A) (Base position plate holder)',$,(#591));
#593=PRESENTATION_STYLE_ASSIGNMENT((#594));
#594=SURFACE_STYLE_USAGE(.BOTH.,#597);
#595=SURFACE_STYLE_RENDERING_WITH_PROPERTIES($,#601,(#596));
#596=SURFACE_STYLE_TRANSPARENT(0.);
#597=SURFACE_SIDE_STYLE('',(#598,#595));
#598=SURFACE_STYLE_FILL_AREA(#599);
#599=FILL_AREA_STYLE('',(#600));
#600=FILL_AREA_STYLE_COLOUR('',#601);
#601=COLOUR_RGB('',0.996078431372549,0.996078431372549,1.);
ENDSEC;
END-ISO-10303-21;
