ISO-10303-21;
HEADER;
/* Generated by software containing ST-Developer
 * from STEP Tools, Inc. (www.steptools.com) 
 */

FILE_DESCRIPTION(
/* description */ (''),
/* implementation_level */ '2;1');

FILE_NAME(
/* name */ 
'C:\\VAULT_LOCAL\\WORKSPACE\\05_GSE\\MGSE\\GSE-052-MGSE-Torsional Thru
st Balance V2\\Magnetic brake subsystem\\Damping magnet plate copper.s
tp',
/* time_stamp */ '2022-11-07T17:44:30+01:00',
/* author */ ('exolab-5mv6l'),
/* organization */ (''),
/* preprocessor_version */ 'ST-DEVELOPER v18.1',
/* originating_system */ 'Autodesk Inventor 2022',
/* authorisation */ '');

FILE_SCHEMA (('AUTOMOTIVE_DESIGN { 1 0 10303 214 3 1 1 }'));
ENDSEC;

DATA;
#10=MECHANICAL_DESIGN_GEOMETRIC_PRESENTATION_REPRESENTATION('',(#13),#276);
#11=SHAPE_REPRESENTATION_RELATIONSHIP('SRR','None',#283,#12);
#12=ADVANCED_BREP_SHAPE_REPRESENTATION('',(#14),#275);
#13=STYLED_ITEM('',(#292),#14);
#14=MANIFOLD_SOLID_BREP('Solide1',#155);
#15=LINE('',#242,#29);
#16=LINE('',#245,#30);
#17=LINE('',#250,#31);
#18=LINE('',#252,#32);
#19=LINE('',#254,#33);
#20=LINE('',#255,#34);
#21=LINE('',#258,#35);
#22=LINE('',#260,#36);
#23=LINE('',#261,#37);
#24=LINE('',#264,#38);
#25=LINE('',#266,#39);
#26=LINE('',#267,#40);
#27=LINE('',#269,#41);
#28=LINE('',#270,#42);
#29=VECTOR('',#203,6.5);
#30=VECTOR('',#206,2.25);
#31=VECTOR('',#211,10.);
#32=VECTOR('',#212,10.);
#33=VECTOR('',#213,10.);
#34=VECTOR('',#214,10.);
#35=VECTOR('',#217,10.);
#36=VECTOR('',#218,10.);
#37=VECTOR('',#219,10.);
#38=VECTOR('',#222,10.);
#39=VECTOR('',#223,10.);
#40=VECTOR('',#224,10.);
#41=VECTOR('',#227,10.);
#42=VECTOR('',#228,10.);
#43=CYLINDRICAL_SURFACE('',#181,6.5);
#44=CYLINDRICAL_SURFACE('',#183,2.25);
#45=FACE_BOUND('',#58,.T.);
#46=FACE_BOUND('',#66,.T.);
#47=FACE_BOUND('',#68,.T.);
#48=FACE_OUTER_BOUND('',#57,.T.);
#49=FACE_OUTER_BOUND('',#59,.T.);
#50=FACE_OUTER_BOUND('',#60,.T.);
#51=FACE_OUTER_BOUND('',#61,.T.);
#52=FACE_OUTER_BOUND('',#62,.T.);
#53=FACE_OUTER_BOUND('',#63,.T.);
#54=FACE_OUTER_BOUND('',#64,.T.);
#55=FACE_OUTER_BOUND('',#65,.T.);
#56=FACE_OUTER_BOUND('',#67,.T.);
#57=EDGE_LOOP('',(#103));
#58=EDGE_LOOP('',(#104));
#59=EDGE_LOOP('',(#105,#106,#107,#108));
#60=EDGE_LOOP('',(#109,#110,#111,#112));
#61=EDGE_LOOP('',(#113,#114,#115,#116));
#62=EDGE_LOOP('',(#117,#118,#119,#120));
#63=EDGE_LOOP('',(#121,#122,#123,#124));
#64=EDGE_LOOP('',(#125,#126,#127,#128));
#65=EDGE_LOOP('',(#129,#130,#131,#132));
#66=EDGE_LOOP('',(#133));
#67=EDGE_LOOP('',(#134,#135,#136,#137));
#68=EDGE_LOOP('',(#138));
#69=CIRCLE('',#179,6.5);
#70=CIRCLE('',#180,2.25);
#71=CIRCLE('',#182,6.5);
#72=CIRCLE('',#184,2.25);
#73=VERTEX_POINT('',#235);
#74=VERTEX_POINT('',#237);
#75=VERTEX_POINT('',#240);
#76=VERTEX_POINT('',#244);
#77=VERTEX_POINT('',#248);
#78=VERTEX_POINT('',#249);
#79=VERTEX_POINT('',#251);
#80=VERTEX_POINT('',#253);
#81=VERTEX_POINT('',#257);
#82=VERTEX_POINT('',#259);
#83=VERTEX_POINT('',#263);
#84=VERTEX_POINT('',#265);
#85=EDGE_CURVE('',#73,#73,#69,.T.);
#86=EDGE_CURVE('',#74,#74,#70,.T.);
#87=EDGE_CURVE('',#75,#75,#71,.T.);
#88=EDGE_CURVE('',#75,#73,#15,.T.);
#89=EDGE_CURVE('',#74,#76,#16,.T.);
#90=EDGE_CURVE('',#76,#76,#72,.T.);
#91=EDGE_CURVE('',#77,#78,#17,.T.);
#92=EDGE_CURVE('',#77,#79,#18,.T.);
#93=EDGE_CURVE('',#80,#79,#19,.T.);
#94=EDGE_CURVE('',#78,#80,#20,.T.);
#95=EDGE_CURVE('',#78,#81,#21,.T.);
#96=EDGE_CURVE('',#82,#80,#22,.T.);
#97=EDGE_CURVE('',#81,#82,#23,.T.);
#98=EDGE_CURVE('',#81,#83,#24,.T.);
#99=EDGE_CURVE('',#84,#82,#25,.T.);
#100=EDGE_CURVE('',#83,#84,#26,.T.);
#101=EDGE_CURVE('',#83,#77,#27,.T.);
#102=EDGE_CURVE('',#79,#84,#28,.T.);
#103=ORIENTED_EDGE('',*,*,#85,.T.);
#104=ORIENTED_EDGE('',*,*,#86,.F.);
#105=ORIENTED_EDGE('',*,*,#87,.F.);
#106=ORIENTED_EDGE('',*,*,#88,.T.);
#107=ORIENTED_EDGE('',*,*,#85,.F.);
#108=ORIENTED_EDGE('',*,*,#88,.F.);
#109=ORIENTED_EDGE('',*,*,#86,.T.);
#110=ORIENTED_EDGE('',*,*,#89,.T.);
#111=ORIENTED_EDGE('',*,*,#90,.F.);
#112=ORIENTED_EDGE('',*,*,#89,.F.);
#113=ORIENTED_EDGE('',*,*,#91,.F.);
#114=ORIENTED_EDGE('',*,*,#92,.T.);
#115=ORIENTED_EDGE('',*,*,#93,.F.);
#116=ORIENTED_EDGE('',*,*,#94,.F.);
#117=ORIENTED_EDGE('',*,*,#95,.F.);
#118=ORIENTED_EDGE('',*,*,#94,.T.);
#119=ORIENTED_EDGE('',*,*,#96,.F.);
#120=ORIENTED_EDGE('',*,*,#97,.F.);
#121=ORIENTED_EDGE('',*,*,#98,.F.);
#122=ORIENTED_EDGE('',*,*,#97,.T.);
#123=ORIENTED_EDGE('',*,*,#99,.F.);
#124=ORIENTED_EDGE('',*,*,#100,.F.);
#125=ORIENTED_EDGE('',*,*,#101,.F.);
#126=ORIENTED_EDGE('',*,*,#100,.T.);
#127=ORIENTED_EDGE('',*,*,#102,.F.);
#128=ORIENTED_EDGE('',*,*,#92,.F.);
#129=ORIENTED_EDGE('',*,*,#101,.T.);
#130=ORIENTED_EDGE('',*,*,#91,.T.);
#131=ORIENTED_EDGE('',*,*,#95,.T.);
#132=ORIENTED_EDGE('',*,*,#98,.T.);
#133=ORIENTED_EDGE('',*,*,#90,.T.);
#134=ORIENTED_EDGE('',*,*,#102,.T.);
#135=ORIENTED_EDGE('',*,*,#99,.T.);
#136=ORIENTED_EDGE('',*,*,#96,.T.);
#137=ORIENTED_EDGE('',*,*,#93,.T.);
#138=ORIENTED_EDGE('',*,*,#87,.T.);
#139=PLANE('',#178);
#140=PLANE('',#185);
#141=PLANE('',#186);
#142=PLANE('',#187);
#143=PLANE('',#188);
#144=PLANE('',#189);
#145=PLANE('',#190);
#146=ADVANCED_FACE('',(#48,#45),#139,.T.);
#147=ADVANCED_FACE('',(#49),#43,.F.);
#148=ADVANCED_FACE('',(#50),#44,.F.);
#149=ADVANCED_FACE('',(#51),#140,.T.);
#150=ADVANCED_FACE('',(#52),#141,.T.);
#151=ADVANCED_FACE('',(#53),#142,.T.);
#152=ADVANCED_FACE('',(#54),#143,.T.);
#153=ADVANCED_FACE('',(#55,#46),#144,.F.);
#154=ADVANCED_FACE('',(#56,#47),#145,.T.);
#155=CLOSED_SHELL('',(#146,#147,#148,#149,#150,#151,#152,#153,#154));
#156=DERIVED_UNIT_ELEMENT(#159,1.);
#157=DERIVED_UNIT_ELEMENT(#278,-3.);
#158=DIMENSIONAL_EXPONENTS(1.,0.,0.,0.,0.,0.,0.);
#159=(
CONVERSION_BASED_UNIT('gram',#161)
MASS_UNIT()
NAMED_UNIT(#158)
);
#160=(
MASS_UNIT()
NAMED_UNIT(*)
SI_UNIT(.KILO.,.GRAM.)
);
#161=MASS_MEASURE_WITH_UNIT(MASS_MEASURE(0.001),#160);
#162=DERIVED_UNIT((#156,#157));
#163=MEASURE_REPRESENTATION_ITEM('density measure',
POSITIVE_RATIO_MEASURE(8.94),#162);
#164=PROPERTY_DEFINITION_REPRESENTATION(#169,#166);
#165=PROPERTY_DEFINITION_REPRESENTATION(#170,#167);
#166=REPRESENTATION('material name',(#168),#275);
#167=REPRESENTATION('density',(#163),#275);
#168=DESCRIPTIVE_REPRESENTATION_ITEM('Cuivre','Cuivre');
#169=PROPERTY_DEFINITION('material property','material name',#285);
#170=PROPERTY_DEFINITION('material property','density of part',#285);
#171=DATE_TIME_ROLE('creation_date');
#172=APPLIED_DATE_AND_TIME_ASSIGNMENT(#173,#171,(#285));
#173=DATE_AND_TIME(#174,#175);
#174=CALENDAR_DATE(2018,7,5);
#175=LOCAL_TIME(0,0,0.,#176);
#176=COORDINATED_UNIVERSAL_TIME_OFFSET(0,0,.BEHIND.);
#177=AXIS2_PLACEMENT_3D('placement',#233,#191,#192);
#178=AXIS2_PLACEMENT_3D('',#234,#193,#194);
#179=AXIS2_PLACEMENT_3D('',#236,#195,#196);
#180=AXIS2_PLACEMENT_3D('',#238,#197,#198);
#181=AXIS2_PLACEMENT_3D('',#239,#199,#200);
#182=AXIS2_PLACEMENT_3D('',#241,#201,#202);
#183=AXIS2_PLACEMENT_3D('',#243,#204,#205);
#184=AXIS2_PLACEMENT_3D('',#246,#207,#208);
#185=AXIS2_PLACEMENT_3D('',#247,#209,#210);
#186=AXIS2_PLACEMENT_3D('',#256,#215,#216);
#187=AXIS2_PLACEMENT_3D('',#262,#220,#221);
#188=AXIS2_PLACEMENT_3D('',#268,#225,#226);
#189=AXIS2_PLACEMENT_3D('',#271,#229,#230);
#190=AXIS2_PLACEMENT_3D('',#272,#231,#232);
#191=DIRECTION('axis',(0.,0.,1.));
#192=DIRECTION('refdir',(1.,0.,0.));
#193=DIRECTION('center_axis',(0.,0.,1.));
#194=DIRECTION('ref_axis',(1.,0.,0.));
#195=DIRECTION('center_axis',(0.,0.,1.));
#196=DIRECTION('ref_axis',(1.,0.,0.));
#197=DIRECTION('center_axis',(0.,0.,1.));
#198=DIRECTION('ref_axis',(1.,0.,0.));
#199=DIRECTION('center_axis',(0.,0.,1.));
#200=DIRECTION('ref_axis',(1.,0.,0.));
#201=DIRECTION('center_axis',(0.,0.,-1.));
#202=DIRECTION('ref_axis',(1.,0.,0.));
#203=DIRECTION('',(0.,0.,-1.));
#204=DIRECTION('center_axis',(0.,0.,1.));
#205=DIRECTION('ref_axis',(1.,0.,0.));
#206=DIRECTION('',(0.,0.,-1.));
#207=DIRECTION('center_axis',(0.,0.,1.));
#208=DIRECTION('ref_axis',(1.,0.,0.));
#209=DIRECTION('center_axis',(1.,0.,0.));
#210=DIRECTION('ref_axis',(0.,1.,0.));
#211=DIRECTION('',(0.,-1.,0.));
#212=DIRECTION('',(0.,0.,1.));
#213=DIRECTION('',(0.,1.,0.));
#214=DIRECTION('',(0.,0.,1.));
#215=DIRECTION('center_axis',(-2.22044604925031E-16,-1.,0.));
#216=DIRECTION('ref_axis',(1.,-2.22044604925031E-16,0.));
#217=DIRECTION('',(-1.,2.22044604925031E-16,0.));
#218=DIRECTION('',(1.,-2.22044604925031E-16,0.));
#219=DIRECTION('',(0.,0.,1.));
#220=DIRECTION('center_axis',(-1.,1.90323947078598E-16,0.));
#221=DIRECTION('ref_axis',(-1.90323947078598E-16,-1.,0.));
#222=DIRECTION('',(1.90323947078598E-16,1.,0.));
#223=DIRECTION('',(-1.90323947078598E-16,-1.,0.));
#224=DIRECTION('',(0.,0.,1.));
#225=DIRECTION('center_axis',(0.,1.,0.));
#226=DIRECTION('ref_axis',(-1.,0.,0.));
#227=DIRECTION('',(1.,0.,0.));
#228=DIRECTION('',(-1.,0.,0.));
#229=DIRECTION('center_axis',(0.,0.,1.));
#230=DIRECTION('ref_axis',(1.,0.,0.));
#231=DIRECTION('center_axis',(0.,0.,1.));
#232=DIRECTION('ref_axis',(1.,0.,0.));
#233=CARTESIAN_POINT('',(0.,0.,0.));
#234=CARTESIAN_POINT('Origin',(-4.44089209850063E-15,-3.33066907387547E-15,
1.6));
#235=CARTESIAN_POINT('',(-6.5,-4.12668949332125E-15,1.6));
#236=CARTESIAN_POINT('Origin',(-4.44089209850063E-15,-3.33066907387547E-15,
1.6));
#237=CARTESIAN_POINT('',(-2.25,-3.60621460368362E-15,1.6));
#238=CARTESIAN_POINT('Origin',(-4.44089209850063E-15,-3.33066907387547E-15,
1.6));
#239=CARTESIAN_POINT('Origin',(-4.44089209850063E-15,-3.33066907387547E-15,
3.3));
#240=CARTESIAN_POINT('',(-6.5,-4.12668949332125E-15,5.));
#241=CARTESIAN_POINT('Origin',(-4.44089209850063E-15,-3.33066907387547E-15,
5.));
#242=CARTESIAN_POINT('',(-6.5,-4.12668949332125E-15,3.3));
#243=CARTESIAN_POINT('Origin',(-4.44089209850063E-15,-3.33066907387547E-15,
-75.7774721070176));
#244=CARTESIAN_POINT('',(-2.25,-3.60621460368362E-15,0.));
#245=CARTESIAN_POINT('',(-2.25,-3.60621460368362E-15,-75.7774721070176));
#246=CARTESIAN_POINT('Origin',(-4.44089209850063E-15,-3.33066907387547E-15,
0.));
#247=CARTESIAN_POINT('Origin',(20.,-35.,0.));
#248=CARTESIAN_POINT('',(20.,35.,0.));
#249=CARTESIAN_POINT('',(20.,-35.,0.));
#250=CARTESIAN_POINT('',(20.,35.,0.));
#251=CARTESIAN_POINT('',(20.,35.,5.));
#252=CARTESIAN_POINT('',(20.,35.,0.));
#253=CARTESIAN_POINT('',(20.,-35.,5.));
#254=CARTESIAN_POINT('',(20.,35.,5.));
#255=CARTESIAN_POINT('',(20.,-35.,0.));
#256=CARTESIAN_POINT('Origin',(-20.,-35.,0.));
#257=CARTESIAN_POINT('',(-20.,-35.,0.));
#258=CARTESIAN_POINT('',(20.,-35.,0.));
#259=CARTESIAN_POINT('',(-20.,-35.,5.));
#260=CARTESIAN_POINT('',(20.,-35.,5.));
#261=CARTESIAN_POINT('',(-20.,-35.,0.));
#262=CARTESIAN_POINT('Origin',(-20.,35.,0.));
#263=CARTESIAN_POINT('',(-20.,35.,0.));
#264=CARTESIAN_POINT('',(-20.,-35.,0.));
#265=CARTESIAN_POINT('',(-20.,35.,5.));
#266=CARTESIAN_POINT('',(-20.,-35.,5.));
#267=CARTESIAN_POINT('',(-20.,35.,0.));
#268=CARTESIAN_POINT('Origin',(20.,35.,0.));
#269=CARTESIAN_POINT('',(-20.,35.,0.));
#270=CARTESIAN_POINT('',(-20.,35.,5.));
#271=CARTESIAN_POINT('Origin',(-3.63345717150051E-15,-1.00929365875014E-15,
0.));
#272=CARTESIAN_POINT('Origin',(-4.44089209850063E-15,0.,5.));
#273=UNCERTAINTY_MEASURE_WITH_UNIT(LENGTH_MEASURE(0.01),#277,
'DISTANCE_ACCURACY_VALUE',
'Maximum model space distance between geometric entities at asserted c
onnectivities');
#274=UNCERTAINTY_MEASURE_WITH_UNIT(LENGTH_MEASURE(0.01),#277,
'DISTANCE_ACCURACY_VALUE',
'Maximum model space distance between geometric entities at asserted c
onnectivities');
#275=(
GEOMETRIC_REPRESENTATION_CONTEXT(3)
GLOBAL_UNCERTAINTY_ASSIGNED_CONTEXT((#273))
GLOBAL_UNIT_ASSIGNED_CONTEXT((#277,#279,#280))
REPRESENTATION_CONTEXT('','3D')
);
#276=(
GEOMETRIC_REPRESENTATION_CONTEXT(3)
GLOBAL_UNCERTAINTY_ASSIGNED_CONTEXT((#274))
GLOBAL_UNIT_ASSIGNED_CONTEXT((#277,#279,#280))
REPRESENTATION_CONTEXT('','3D')
);
#277=(
LENGTH_UNIT()
NAMED_UNIT(*)
SI_UNIT(.MILLI.,.METRE.)
);
#278=(
LENGTH_UNIT()
NAMED_UNIT(*)
SI_UNIT(.CENTI.,.METRE.)
);
#279=(
NAMED_UNIT(*)
PLANE_ANGLE_UNIT()
SI_UNIT($,.RADIAN.)
);
#280=(
NAMED_UNIT(*)
SI_UNIT($,.STERADIAN.)
SOLID_ANGLE_UNIT()
);
#281=SHAPE_DEFINITION_REPRESENTATION(#282,#283);
#282=PRODUCT_DEFINITION_SHAPE('',$,#285);
#283=SHAPE_REPRESENTATION('',(#177),#275);
#284=PRODUCT_DEFINITION_CONTEXT('part definition',#289,'design');
#285=PRODUCT_DEFINITION('Damping magnet plate copper',
'Damping magnet plate copper',#286,#284);
#286=PRODUCT_DEFINITION_FORMATION('',$,#291);
#287=PRODUCT_RELATED_PRODUCT_CATEGORY('Damping magnet plate copper',
'Damping magnet plate copper',(#291));
#288=APPLICATION_PROTOCOL_DEFINITION('international standard',
'automotive_design',2009,#289);
#289=APPLICATION_CONTEXT(
'Core Data for Automotive Mechanical Design Process');
#290=PRODUCT_CONTEXT('part definition',#289,'mechanical');
#291=PRODUCT('Damping magnet plate copper',
'Damping magnet plate copper',$,(#290));
#292=PRESENTATION_STYLE_ASSIGNMENT((#293));
#293=SURFACE_STYLE_USAGE(.BOTH.,#296);
#294=SURFACE_STYLE_RENDERING_WITH_PROPERTIES($,#300,(#295));
#295=SURFACE_STYLE_TRANSPARENT(0.);
#296=SURFACE_SIDE_STYLE('',(#297,#294));
#297=SURFACE_STYLE_FILL_AREA(#298);
#298=FILL_AREA_STYLE('',(#299));
#299=FILL_AREA_STYLE_COLOUR('',#300);
#300=COLOUR_RGB('',0.737254901960784,0.313725490196078,0.184313725490196);
ENDSEC;
END-ISO-10303-21;
