ISO-10303-21;
HEADER;
FILE_DESCRIPTION((''),'2;1');
FILE_NAME('MOULD','2022-10-24T20:19:02',('georg'),(''),
'CREO PARAMETRIC BY PTC INC, 2018100','CREO PARAMETRIC BY PTC INC, 2018100','');
FILE_SCHEMA(('CONFIG_CONTROL_DESIGN'));
ENDSEC;
DATA;
#1=DIRECTION('',(2.497223382622E-2,9.988893530488E-1,-3.995557412195E-2));
#2=VECTOR('',#1,1.001111881859E2);
#3=CARTESIAN_POINT('',(5.E0,-2.5E1,-1.E0));
#4=LINE('',#3,#2);
#5=DIRECTION('',(0.E0,0.E0,1.E0));
#6=VECTOR('',#5,2.E0);
#7=CARTESIAN_POINT('',(5.E0,-2.5E1,-1.E0));
#8=LINE('',#7,#6);
#9=DIRECTION('',(2.497223382622E-2,9.988893530488E-1,3.995557412195E-2));
#10=VECTOR('',#9,1.001111881859E2);
#11=CARTESIAN_POINT('',(5.E0,-2.5E1,1.E0));
#12=LINE('',#11,#10);
#13=DIRECTION('',(1.E0,0.E0,0.E0));
#14=VECTOR('',#13,1.E1);
#15=CARTESIAN_POINT('',(-5.E0,-2.5E1,-1.E0));
#16=LINE('',#15,#14);
#17=DIRECTION('',(0.E0,0.E0,1.E0));
#18=VECTOR('',#17,2.E0);
#19=CARTESIAN_POINT('',(-5.E0,-2.5E1,-1.E0));
#20=LINE('',#19,#18);
#21=DIRECTION('',(1.E0,0.E0,0.E0));
#22=VECTOR('',#21,1.E1);
#23=CARTESIAN_POINT('',(-5.E0,-2.5E1,1.E0));
#24=LINE('',#23,#22);
#25=DIRECTION('',(-2.497223382622E-2,9.988893530488E-1,-3.995557412195E-2));
#26=VECTOR('',#25,1.001111881859E2);
#27=CARTESIAN_POINT('',(-5.E0,-2.5E1,-1.E0));
#28=LINE('',#27,#26);
#29=DIRECTION('',(0.E0,0.E0,1.E0));
#30=VECTOR('',#29,1.E1);
#31=CARTESIAN_POINT('',(-7.5E0,7.5E1,-5.E0));
#32=LINE('',#31,#30);
#33=DIRECTION('',(-2.497223382622E-2,9.988893530488E-1,3.995557412195E-2));
#34=VECTOR('',#33,1.001111881859E2);
#35=CARTESIAN_POINT('',(-5.E0,-2.5E1,1.E0));
#36=LINE('',#35,#34);
#37=DIRECTION('',(-1.E0,0.E0,0.E0));
#38=VECTOR('',#37,1.5E1);
#39=CARTESIAN_POINT('',(7.5E0,7.5E1,-5.E0));
#40=LINE('',#39,#38);
#41=DIRECTION('',(0.E0,0.E0,1.E0));
#42=VECTOR('',#41,1.E1);
#43=CARTESIAN_POINT('',(7.5E0,7.5E1,-5.E0));
#44=LINE('',#43,#42);
#45=DIRECTION('',(-1.E0,0.E0,0.E0));
#46=VECTOR('',#45,1.5E1);
#47=CARTESIAN_POINT('',(7.5E0,7.5E1,5.E0));
#48=LINE('',#47,#46);
#49=CARTESIAN_POINT('',(-5.E0,-2.5E1,1.E0));
#50=CARTESIAN_POINT('',(5.E0,-2.5E1,1.E0));
#51=VERTEX_POINT('',#49);
#52=VERTEX_POINT('',#50);
#53=CARTESIAN_POINT('',(-5.E0,-2.5E1,-1.E0));
#54=CARTESIAN_POINT('',(5.E0,-2.5E1,-1.E0));
#55=VERTEX_POINT('',#53);
#56=VERTEX_POINT('',#54);
#57=CARTESIAN_POINT('',(7.5E0,7.5E1,5.E0));
#58=VERTEX_POINT('',#57);
#59=CARTESIAN_POINT('',(-7.5E0,7.5E1,5.E0));
#60=VERTEX_POINT('',#59);
#61=CARTESIAN_POINT('',(7.5E0,7.5E1,-5.E0));
#62=VERTEX_POINT('',#61);
#63=CARTESIAN_POINT('',(-7.5E0,7.5E1,-5.E0));
#64=VERTEX_POINT('',#63);
#65=CARTESIAN_POINT('',(5.E0,-2.5E1,-1.5E1));
#66=DIRECTION('',(9.996876464081E-1,-2.499219116020E-2,0.E0));
#67=DIRECTION('',(2.499219116020E-2,9.996876464081E-1,0.E0));
#68=AXIS2_PLACEMENT_3D('',#65,#66,#67);
#69=PLANE('',#68);
#71=ORIENTED_EDGE('',*,*,#70,.F.);
#73=ORIENTED_EDGE('',*,*,#72,.T.);
#75=ORIENTED_EDGE('',*,*,#74,.T.);
#77=ORIENTED_EDGE('',*,*,#76,.F.);
#78=EDGE_LOOP('',(#71,#73,#75,#77));
#79=FACE_OUTER_BOUND('',#78,.F.);
#80=ADVANCED_FACE('',(#79),#69,.T.);
#81=CARTESIAN_POINT('',(-1.3185E1,-2.5E1,-1.E0));
#82=DIRECTION('',(0.E0,-3.996803834887E-2,-9.992009587218E-1));
#83=DIRECTION('',(0.E0,9.992009587218E-1,-3.996803834887E-2));
#84=AXIS2_PLACEMENT_3D('',#81,#82,#83);
#85=PLANE('',#84);
#87=ORIENTED_EDGE('',*,*,#86,.T.);
#88=ORIENTED_EDGE('',*,*,#70,.T.);
#90=ORIENTED_EDGE('',*,*,#89,.T.);
#92=ORIENTED_EDGE('',*,*,#91,.F.);
#93=EDGE_LOOP('',(#87,#88,#90,#92));
#94=FACE_OUTER_BOUND('',#93,.F.);
#95=ADVANCED_FACE('',(#94),#85,.T.);
#96=CARTESIAN_POINT('',(-5.E0,-2.5E1,-1.5E1));
#97=DIRECTION('',(0.E0,-1.E0,0.E0));
#98=DIRECTION('',(1.E0,0.E0,0.E0));
#99=AXIS2_PLACEMENT_3D('',#96,#97,#98);
#100=PLANE('',#99);
#101=ORIENTED_EDGE('',*,*,#86,.F.);
#103=ORIENTED_EDGE('',*,*,#102,.T.);
#105=ORIENTED_EDGE('',*,*,#104,.T.);
#106=ORIENTED_EDGE('',*,*,#72,.F.);
#107=EDGE_LOOP('',(#101,#103,#105,#106));
#108=FACE_OUTER_BOUND('',#107,.F.);
#109=ADVANCED_FACE('',(#108),#100,.T.);
#110=CARTESIAN_POINT('',(-7.5E0,7.5E1,-1.5E1));
#111=DIRECTION('',(-9.996876464081E-1,-2.499219116020E-2,0.E0));
#112=DIRECTION('',(2.499219116020E-2,-9.996876464081E-1,0.E0));
#113=AXIS2_PLACEMENT_3D('',#110,#111,#112);
#114=PLANE('',#113);
#115=ORIENTED_EDGE('',*,*,#91,.T.);
#117=ORIENTED_EDGE('',*,*,#116,.T.);
#119=ORIENTED_EDGE('',*,*,#118,.F.);
#120=ORIENTED_EDGE('',*,*,#102,.F.);
#121=EDGE_LOOP('',(#115,#117,#119,#120));
#122=FACE_OUTER_BOUND('',#121,.F.);
#123=ADVANCED_FACE('',(#122),#114,.T.);
#124=CARTESIAN_POINT('',(7.5E0,7.5E1,-1.5E1));
#125=DIRECTION('',(0.E0,1.E0,0.E0));
#126=DIRECTION('',(-1.E0,0.E0,0.E0));
#127=AXIS2_PLACEMENT_3D('',#124,#125,#126);
#128=PLANE('',#127);
#129=ORIENTED_EDGE('',*,*,#89,.F.);
#130=ORIENTED_EDGE('',*,*,#76,.T.);
#132=ORIENTED_EDGE('',*,*,#131,.T.);
#133=ORIENTED_EDGE('',*,*,#116,.F.);
#134=EDGE_LOOP('',(#129,#130,#132,#133));
#135=FACE_OUTER_BOUND('',#134,.F.);
#136=ADVANCED_FACE('',(#135),#128,.T.);
#137=CARTESIAN_POINT('',(-1.3185E1,-2.5E1,1.E0));
#138=DIRECTION('',(0.E0,3.996803834887E-2,-9.992009587218E-1));
#139=DIRECTION('',(0.E0,9.992009587218E-1,3.996803834887E-2));
#140=AXIS2_PLACEMENT_3D('',#137,#138,#139);
#141=PLANE('',#140);
#142=ORIENTED_EDGE('',*,*,#104,.F.);
#143=ORIENTED_EDGE('',*,*,#118,.T.);
#144=ORIENTED_EDGE('',*,*,#131,.F.);
#145=ORIENTED_EDGE('',*,*,#74,.F.);
#146=EDGE_LOOP('',(#142,#143,#144,#145));
#147=FACE_OUTER_BOUND('',#146,.F.);
#148=ADVANCED_FACE('',(#147),#141,.F.);
#149=CLOSED_SHELL('',(#80,#95,#109,#123,#136,#148));
#150=MANIFOLD_SOLID_BREP('',#149);
#152=DIMENSIONAL_EXPONENTS(0.E0,0.E0,0.E0,0.E0,0.E0,0.E0,0.E0);
#154=PLANE_ANGLE_MEASURE_WITH_UNIT(PLANE_ANGLE_MEASURE(1.745329251994E-2),#153);
#155=(CONVERSION_BASED_UNIT('DEGREE',#154)NAMED_UNIT(*)PLANE_ANGLE_UNIT());
#157=UNCERTAINTY_MEASURE_WITH_UNIT(LENGTH_MEASURE(1.054708965440E-2),#151,
'closure',
'Maximum model space distance between geometric entities at asserted connectivities');
#158=(GEOMETRIC_REPRESENTATION_CONTEXT(3)GLOBAL_UNCERTAINTY_ASSIGNED_CONTEXT((
#157))GLOBAL_UNIT_ASSIGNED_CONTEXT((#151,#155,#156))REPRESENTATION_CONTEXT
('ID1','3'));
#160=APPLICATION_CONTEXT(
'CONFIGURATION CONTROLLED 3D DESIGNS OF MECHANICAL PARTS AND ASSEMBLIES');
#161=APPLICATION_PROTOCOL_DEFINITION('international standard',
'config_control_design',1994,#160);
#162=DESIGN_CONTEXT('',#160,'design');
#163=MECHANICAL_CONTEXT('',#160,'mechanical');
#164=PRODUCT('MOULD','MOULD','NOT SPECIFIED',(#163));
#165=PRODUCT_DEFINITION_FORMATION_WITH_SPECIFIED_SOURCE('6','LAST_VERSION',#164,
.MADE.);
#169=PRODUCT_CATEGORY('part','');
#170=PRODUCT_RELATED_PRODUCT_CATEGORY('detail','',(#164));
#171=PRODUCT_CATEGORY_RELATIONSHIP('','',#169,#170);
#172=SECURITY_CLASSIFICATION_LEVEL('unclassified');
#173=SECURITY_CLASSIFICATION('','',#172);
#174=CC_DESIGN_SECURITY_CLASSIFICATION(#173,(#165));
#175=APPROVAL_STATUS('approved');
#176=APPROVAL(#175,'');
#177=CC_DESIGN_APPROVAL(#176,(#173,#165,#166));
#178=CALENDAR_DATE(122,24,10);
#179=COORDINATED_UNIVERSAL_TIME_OFFSET(5,30,.AHEAD.);
#180=LOCAL_TIME(20,19,2.E0,#179);
#181=DATE_AND_TIME(#178,#180);
#182=APPROVAL_DATE_TIME(#181,#176);
#183=DATE_TIME_ROLE('creation_date');
#184=CC_DESIGN_DATE_AND_TIME_ASSIGNMENT(#181,#183,(#166));
#185=DATE_TIME_ROLE('classification_date');
#186=CC_DESIGN_DATE_AND_TIME_ASSIGNMENT(#181,#185,(#173));
#187=PERSON('UNSPECIFIED','UNSPECIFIED',$,$,$,$);
#188=ORGANIZATION('UNSPECIFIED','UNSPECIFIED','UNSPECIFIED');
#189=PERSON_AND_ORGANIZATION(#187,#188);
#190=APPROVAL_ROLE('approver');
#191=APPROVAL_PERSON_ORGANIZATION(#189,#176,#190);
#192=PERSON_AND_ORGANIZATION_ROLE('creator');
#193=CC_DESIGN_PERSON_AND_ORGANIZATION_ASSIGNMENT(#189,#192,(#165,#166));
#194=PERSON_AND_ORGANIZATION_ROLE('design_supplier');
#195=CC_DESIGN_PERSON_AND_ORGANIZATION_ASSIGNMENT(#189,#194,(#165));
#196=PERSON_AND_ORGANIZATION_ROLE('classification_officer');
#197=CC_DESIGN_PERSON_AND_ORGANIZATION_ASSIGNMENT(#189,#196,(#173));
#198=PERSON_AND_ORGANIZATION_ROLE('design_owner');
#199=CC_DESIGN_PERSON_AND_ORGANIZATION_ASSIGNMENT(#189,#198,(#164));
#70=EDGE_CURVE('',#56,#62,#4,.T.);
#72=EDGE_CURVE('',#56,#52,#8,.T.);
#74=EDGE_CURVE('',#52,#58,#12,.T.);
#76=EDGE_CURVE('',#62,#58,#44,.T.);
#86=EDGE_CURVE('',#55,#56,#16,.T.);
#89=EDGE_CURVE('',#62,#64,#40,.T.);
#91=EDGE_CURVE('',#55,#64,#28,.T.);
#102=EDGE_CURVE('',#55,#51,#20,.T.);
#104=EDGE_CURVE('',#51,#52,#24,.T.);
#116=EDGE_CURVE('',#64,#60,#32,.T.);
#118=EDGE_CURVE('',#51,#60,#36,.T.);
#131=EDGE_CURVE('',#58,#60,#48,.T.);
#151=(LENGTH_UNIT()NAMED_UNIT(*)SI_UNIT(.MILLI.,.METRE.));
#153=(NAMED_UNIT(*)PLANE_ANGLE_UNIT()SI_UNIT($,.RADIAN.));
#156=(NAMED_UNIT(*)SI_UNIT($,.STERADIAN.)SOLID_ANGLE_UNIT());
#159=ADVANCED_BREP_SHAPE_REPRESENTATION('',(#150),#158);
#166=PRODUCT_DEFINITION('design','',#165,#162);
#167=PRODUCT_DEFINITION_SHAPE('','SHAPE FOR MOULD.',#166);
#168=SHAPE_DEFINITION_REPRESENTATION(#167,#159);
ENDSEC;
END-ISO-10303-21;
