ISO-10303-21;
HEADER;
FILE_DESCRIPTION (( 'STEP AP203' ),
    '1' );
FILE_NAME ('usilor 1 -- 15-11-23.STEP',
    '2022-11-15T10:03:40',
    ( '' ),
    ( '' ),
    'SwSTEP 2.0',
    'SolidWorks 2017',
    '' );
FILE_SCHEMA (( 'CONFIG_CONTROL_DESIGN' ));
ENDSEC;

DATA;
#1 = DIRECTION ( 'NONE',  ( -0.0000000000000000000, -1.000000000000000000, -0.0000000000000000000 ) ) ;
#2 = DIRECTION ( 'NONE',  ( -0.0000000000000000000, -1.000000000000000000, -0.0000000000000000000 ) ) ;
#3 = VERTEX_POINT ( 'NONE', #277 ) ;
#4 = DIRECTION ( 'NONE',  ( 0.0000000000000000000, 0.0000000000000000000, -1.000000000000000000 ) ) ;
#5 = EDGE_CURVE ( 'NONE', #268, #148, #164, .T. ) ;
#6 = DIRECTION ( 'NONE',  ( 0.0000000000000000000, 0.0000000000000000000, -1.000000000000000000 ) ) ;
#7 = AXIS2_PLACEMENT_3D ( 'NONE', #384, #380, #221 ) ;
#8 = CIRCLE ( 'NONE', #76, 19.00000000000000000 ) ;
#9 = COORDINATED_UNIVERSAL_TIME_OFFSET ( 1, 0, .AHEAD. ) ;
#10 = ORIENTED_EDGE ( 'NONE', *, *, #370, .T. ) ;
#11 = CIRCLE ( 'NONE', #351, 23.00000000000000000 ) ;
#12 = COORDINATED_UNIVERSAL_TIME_OFFSET ( 1, 0, .AHEAD. ) ;
#13 = MECHANICAL_CONTEXT ( 'NONE', #134, 'mechanical' ) ;
#14 = CIRCLE ( 'NONE', #191, 23.00000000000000000 ) ;
#15 = PERSON_AND_ORGANIZATION ( #113, #388 ) ;
#16 = VERTEX_POINT ( 'NONE', #202 ) ;
#17 = CARTESIAN_POINT ( 'NONE',  ( 2.571758278209441700E-015, 0.0000000000000000000, 21.00000000000000000 ) ) ;
#18 = EDGE_CURVE ( 'NONE', #118, #170, #180, .T. ) ;
#19 = CIRCLE ( 'NONE', #151, 20.99999999999999600 ) ;
#20 = CARTESIAN_POINT ( 'NONE',  ( 2.571758278209441700E-015, 0.0000000000000000000, 21.00000000000000000 ) ) ;
#21 = PRODUCT ( 'usilor 1 -- 15-11-23', 'usilor 1 -- 15-11-23', '', ( #13 ) ) ;
#22 = DIRECTION ( 'NONE',  ( -0.0000000000000000000, -1.000000000000000000, -0.0000000000000000000 ) ) ;
#23 = EDGE_CURVE ( 'NONE', #163, #36, #107, .T. ) ;
#24 = ORIENTED_EDGE ( 'NONE', *, *, #301, .T. ) ;
#25 = EDGE_CURVE ( 'NONE', #16, #111, #145, .T. ) ;
#26 = CARTESIAN_POINT ( 'NONE',  ( 0.0000000000000000000, 0.0000000000000000000, 0.0000000000000000000 ) ) ;
#27 = DATE_AND_TIME ( #372, #130 ) ;
#28 = CC_DESIGN_PERSON_AND_ORGANIZATION_ASSIGNMENT ( #178, #139, ( #400 ) ) ;
#29 = ORIENTED_EDGE ( 'NONE', *, *, #301, .F. ) ;
#30 = CYLINDRICAL_SURFACE ( 'NONE', #364, 20.99999999999999600 ) ;
#31 = LOCAL_TIME ( 11, 3, 40.00000000000000000, #345 ) ;
#32 = ADVANCED_FACE ( 'NONE', ( #360 ), #53, .F. ) ;
#33 = DIRECTION ( 'NONE',  ( -0.0000000000000000000, -1.000000000000000000, -0.0000000000000000000 ) ) ;
#34 = DIRECTION ( 'NONE',  ( -0.0000000000000000000, -1.000000000000000000, -0.0000000000000000000 ) ) ;
#35 = DIRECTION ( 'NONE',  ( 0.0000000000000000000, 0.0000000000000000000, -1.000000000000000000 ) ) ;
#36 = VERTEX_POINT ( 'NONE', #17 ) ;
#37 = CC_DESIGN_PERSON_AND_ORGANIZATION_ASSIGNMENT ( #105, #42, ( #400 ) ) ;
#38 = PERSON_AND_ORGANIZATION ( #113, #388 ) ;
#39 = CC_DESIGN_APPROVAL ( #341, ( #99 ) ) ;
#40 = EDGE_LOOP ( 'NONE', ( #251, #75 ) ) ;
#41 = VECTOR ( 'NONE', #61, 1000.000000000000000 ) ;
#42 = PERSON_AND_ORGANIZATION_ROLE ( 'creator' ) ;
#43 = VERTEX_POINT ( 'NONE', #238 ) ;
#44 = LINE ( 'NONE', #126, #283 ) ;
#45 = DATE_TIME_ROLE ( 'creation_date' ) ;
#46 = AXIS2_PLACEMENT_3D ( 'NONE', #207, #339, #332 ) ;
#47 = ORIENTED_EDGE ( 'NONE', *, *, #197, .T. ) ;
#48 = AXIS2_PLACEMENT_3D ( 'NONE', #309, #33, #250 ) ;
#49 = PLANE ( 'NONE',  #303 ) ;
#50 = DIRECTION ( 'NONE',  ( -0.0000000000000000000, -1.000000000000000000, -0.0000000000000000000 ) ) ;
#51 = EDGE_LOOP ( 'NONE', ( #29, #373, #305, #179 ) ) ;
#52 = DIRECTION ( 'NONE',  ( 0.0000000000000000000, 0.0000000000000000000, -1.000000000000000000 ) ) ;
#53 = CYLINDRICAL_SURFACE ( 'NONE', #104, 19.00000000000000000 ) ;
#54 = AXIS2_PLACEMENT_3D ( 'NONE', #186, #317, #315 ) ;
#55 = CARTESIAN_POINT ( 'NONE',  ( 0.0000000000000000000, 20.00000000000000000, -19.00000000000000000 ) ) ;
#56 = EDGE_LOOP ( 'NONE', ( #83, #229, #369, #273 ) ) ;
#57 = DIRECTION ( 'NONE',  ( -0.0000000000000000000, -1.000000000000000000, -0.0000000000000000000 ) ) ;
#58 = CC_DESIGN_DATE_AND_TIME_ASSIGNMENT ( #150, #385, ( #99 ) ) ;
#59 = ADVANCED_FACE ( 'NONE', ( #275 ), #389, .F. ) ;
#60 = FACE_OUTER_BOUND ( 'NONE', #100, .T. ) ;
#61 = DIRECTION ( 'NONE',  ( -0.0000000000000000000, -1.000000000000000000, -0.0000000000000000000 ) ) ;
#62 = EDGE_LOOP ( 'NONE', ( #326, #135, #204, #174 ) ) ;
#63 = ORIENTED_EDGE ( 'NONE', *, *, #348, .F. ) ;
#64 = EDGE_CURVE ( 'NONE', #282, #378, #19, .T. ) ;
#65 = CARTESIAN_POINT ( 'NONE',  ( 0.0000000000000000000, 166.9999999999999700, -20.99999999999999600 ) ) ;
#66 = DATE_AND_TIME ( #355, #146 ) ;
#67 = CIRCLE ( 'NONE', #382, 19.00000000000000000 ) ;
#68 = VERTEX_POINT ( 'NONE', #78 ) ;
#69 = AXIS2_PLACEMENT_3D ( 'NONE', #94, #313, #375 ) ;
#70 = DIRECTION ( 'NONE',  ( 0.0000000000000000000, 0.0000000000000000000, -1.000000000000000000 ) ) ;
#71 = SECURITY_CLASSIFICATION_LEVEL ( 'unclassified' ) ;
#72 = EDGE_LOOP ( 'NONE', ( #331, #110 ) ) ;
#73 =( NAMED_UNIT ( * ) PLANE_ANGLE_UNIT ( ) SI_UNIT ( $, .RADIAN. ) );
#74 = VECTOR ( 'NONE', #34, 1000.000000000000000 ) ;
#75 = ORIENTED_EDGE ( 'NONE', *, *, #171, .T. ) ;
#76 = AXIS2_PLACEMENT_3D ( 'NONE', #285, #218, #6 ) ;
#77 = CYLINDRICAL_SURFACE ( 'NONE', #353, 19.00000000000000000 ) ;
#78 = CARTESIAN_POINT ( 'NONE',  ( 0.0000000000000000000, 0.0000000000000000000, -21.00000000000000000 ) ) ;
#79 = ORIENTED_EDGE ( 'NONE', *, *, #348, .T. ) ;
#80 = CYLINDRICAL_SURFACE ( 'NONE', #87, 21.00000000000000000 ) ;
#81 = CARTESIAN_POINT ( 'NONE',  ( 0.0000000000000000000, 180.0000000000000000, 0.0000000000000000000 ) ) ;
#82 = CARTESIAN_POINT ( 'NONE',  ( 0.0000000000000000000, 20.00000000000000000, -21.00000000000000000 ) ) ;
#83 = ORIENTED_EDGE ( 'NONE', *, *, #64, .F. ) ;
#84 = ORIENTED_EDGE ( 'NONE', *, *, #211, .F. ) ;
#85 = DIRECTION ( 'NONE',  ( 0.0000000000000000000, 0.0000000000000000000, -1.000000000000000000 ) ) ;
#86 = ADVANCED_FACE ( 'NONE', ( #344, #167 ), #49, .F. ) ;
#87 = AXIS2_PLACEMENT_3D ( 'NONE', #278, #208, #213 ) ;
#88 = DIRECTION ( 'NONE',  ( 0.0000000000000000000, 0.0000000000000000000, -1.000000000000000000 ) ) ;
#89 = CIRCLE ( 'NONE', #90, 21.00000000000000000 ) ;
#90 = AXIS2_PLACEMENT_3D ( 'NONE', #189, #157, #160 ) ;
#91 = CARTESIAN_POINT ( 'NONE',  ( 2.816687638038912400E-015, 0.0000000000000000000, 23.00000000000000000 ) ) ;
#92 = COORDINATED_UNIVERSAL_TIME_OFFSET ( 1, 0, .AHEAD. ) ;
#93 = ORIENTED_EDGE ( 'NONE', *, *, #5, .T. ) ;
#94 = CARTESIAN_POINT ( 'NONE',  ( 0.0000000000000000000, 180.0000000000000000, 0.0000000000000000000 ) ) ;
#95 = PLANE ( 'NONE',  #7 ) ;
#96 = FACE_OUTER_BOUND ( 'NONE', #407, .T. ) ;
#97 = CC_DESIGN_APPROVAL ( #374, ( #400 ) ) ;
#98 = DIRECTION ( 'NONE',  ( -0.0000000000000000000, -1.000000000000000000, -0.0000000000000000000 ) ) ;
#99 = SECURITY_CLASSIFICATION ( '', '', #71 ) ;
#100 = EDGE_LOOP ( 'NONE', ( #142, #63, #155, #93 ) ) ;
#101 = ORIENTED_EDGE ( 'NONE', *, *, #286, .T. ) ;
#102 = APPROVAL_ROLE ( '' ) ;
#103 = EDGE_LOOP ( 'NONE', ( #79, #169 ) ) ;
#104 = AXIS2_PLACEMENT_3D ( 'NONE', #112, #365, #109 ) ;
#105 = PERSON_AND_ORGANIZATION ( #113, #388 ) ;
#106 = ORIENTED_EDGE ( 'NONE', *, *, #366, .F. ) ;
#107 = LINE ( 'NONE', #20, #333 ) ;
#108 = VECTOR ( 'NONE', #354, 1000.000000000000000 ) ;
#109 = DIRECTION ( 'NONE',  ( 0.0000000000000000000, 0.0000000000000000000, -1.000000000000000000 ) ) ;
#110 = ORIENTED_EDGE ( 'NONE', *, *, #391, .F. ) ;
#111 = VERTEX_POINT ( 'NONE', #302 ) ;
#112 = CARTESIAN_POINT ( 'NONE',  ( 0.0000000000000000000, 0.0000000000000000000, 0.0000000000000000000 ) ) ;
#113 = PERSON ( 'UNSPECIFIED', 'UNSPECIFIED', 'UNSPECIFIED', ('UNSPECIFIED'), ('UNSPECIFIED'), ('UNSPECIFIED') ) ;
#114 = APPROVAL ( #261, 'UNSPECIFIED' ) ;
#115 = DIRECTION ( 'NONE',  ( 0.0000000000000000000, -1.000000000000000000, -0.0000000000000000000 ) ) ;
#116 = CALENDAR_DATE ( 2022, 15, 11 ) ;
#117 = PLANE ( 'NONE',  #342 ) ;
#118 = VERTEX_POINT ( 'NONE', #298 ) ;
#119 = DESIGN_CONTEXT ( 'detailed design', #133, 'design' ) ;
#120 = CC_DESIGN_SECURITY_CLASSIFICATION ( #99, ( #400 ) ) ;
#121 = APPROVAL_DATE_TIME ( #182, #341 ) ;
#122 = DIRECTION ( 'NONE',  ( -0.0000000000000000000, -1.000000000000000000, -0.0000000000000000000 ) ) ;
#123 = FACE_BOUND ( 'NONE', #299, .T. ) ;
#124 = CARTESIAN_POINT ( 'NONE',  ( 0.0000000000000000000, 20.00000000000000000, 0.0000000000000000000 ) ) ;
#125 = ORIENTED_EDGE ( 'NONE', *, *, #263, .F. ) ;
#126 = CARTESIAN_POINT ( 'NONE',  ( 0.0000000000000000000, 0.0000000000000000000, -23.00000000000000000 ) ) ;
#127 = DIRECTION ( 'NONE',  ( -0.0000000000000000000, -1.000000000000000000, -0.0000000000000000000 ) ) ;
#128 = CARTESIAN_POINT ( 'NONE',  ( 0.0000000000000000000, 0.0000000000000000000, 0.0000000000000000000 ) ) ;
#129 = DIRECTION ( 'NONE',  ( 0.0000000000000000000, 0.0000000000000000000, -1.000000000000000000 ) ) ;
#130 = LOCAL_TIME ( 11, 3, 40.00000000000000000, #209 ) ;
#131 = VERTEX_POINT ( 'NONE', #82 ) ;
#132 = EDGE_CURVE ( 'NONE', #378, #357, #280, .T. ) ;
#133 = APPLICATION_CONTEXT ( 'configuration controlled 3d designs of mechanical parts and assemblies' ) ;
#134 = APPLICATION_CONTEXT ( 'configuration controlled 3d designs of mechanical parts and assemblies' ) ;
#135 = ORIENTED_EDGE ( 'NONE', *, *, #25, .T. ) ;
#136 = APPROVAL_STATUS ( 'not_yet_approved' ) ;
#137 = LINE ( 'NONE', #154, #408 ) ;
#138 = APPLICATION_PROTOCOL_DEFINITION ( 'international standard', 'config_control_design', 1994, #133 ) ;
#139 = PERSON_AND_ORGANIZATION_ROLE ( 'design_supplier' ) ;
#140 = CC_DESIGN_PERSON_AND_ORGANIZATION_ASSIGNMENT ( #279, #262, ( #361 ) ) ;
#141 = MANIFOLD_SOLID_BREP ( 'Révolution1', #316 ) ;
#142 = ORIENTED_EDGE ( 'NONE', *, *, #370, .F. ) ;
#143 = PRODUCT_RELATED_PRODUCT_CATEGORY ( 'detail', '', ( #21 ) ) ;
#144 = ORIENTED_EDGE ( 'NONE', *, *, #263, .T. ) ;
#145 = CIRCLE ( 'NONE', #242, 23.00000000000000000 ) ;
#146 = LOCAL_TIME ( 11, 3, 40.00000000000000000, #9 ) ;
#147 = FACE_BOUND ( 'NONE', #72, .T. ) ;
#148 = VERTEX_POINT ( 'NONE', #346 ) ;
#149 = DIRECTION ( 'NONE',  ( 0.0000000000000000000, 0.0000000000000000000, -1.000000000000000000 ) ) ;
#150 = DATE_AND_TIME ( #281, #306 ) ;
#151 = AXIS2_PLACEMENT_3D ( 'NONE', #81, #368, #173 ) ;
#152 = CARTESIAN_POINT ( 'NONE',  ( 0.0000000000000000000, 180.0000000000000000, 0.0000000000000000000 ) ) ;
#153 = FACE_OUTER_BOUND ( 'NONE', #327, .T. ) ;
#154 = CARTESIAN_POINT ( 'NONE',  ( 0.0000000000000000000, 0.0000000000000000000, -21.00000000000000000 ) ) ;
#155 = ORIENTED_EDGE ( 'NONE', *, *, #211, .T. ) ;
#156 = CYLINDRICAL_SURFACE ( 'NONE', #48, 23.00000000000000000 ) ;
#157 = DIRECTION ( 'NONE',  ( -0.0000000000000000000, -1.000000000000000000, -0.0000000000000000000 ) ) ;
#158 = LINE ( 'NONE', #253, #41 ) ;
#159 = ORIENTED_EDGE ( 'NONE', *, *, #319, .F. ) ;
#160 = DIRECTION ( 'NONE',  ( 0.0000000000000000000, 0.0000000000000000000, -1.000000000000000000 ) ) ;
#161 = AXIS2_PLACEMENT_3D ( 'NONE', #128, #287, #4 ) ;
#162 = LINE ( 'NONE', #184, #108 ) ;
#163 = VERTEX_POINT ( 'NONE', #274 ) ;
#164 = CIRCLE ( 'NONE', #394, 19.00000000000000000 ) ;
#165 = ADVANCED_BREP_SHAPE_REPRESENTATION ( 'usilor 1 -- 15-11-23', ( #141, #198 ), #295 ) ;
#166 = PERSON_AND_ORGANIZATION_ROLE ( 'design_owner' ) ;
#167 = FACE_BOUND ( 'NONE', #103, .T. ) ;
#168 = AXIS2_PLACEMENT_3D ( 'NONE', #405, #183, #347 ) ;
#169 = ORIENTED_EDGE ( 'NONE', *, *, #18, .T. ) ;
#170 = VERTEX_POINT ( 'NONE', #304 ) ;
#171 = EDGE_CURVE ( 'NONE', #293, #43, #14, .T. ) ;
#172 = CARTESIAN_POINT ( 'NONE',  ( 0.0000000000000000000, 0.0000000000000000000, 0.0000000000000000000 ) ) ;
#173 = DIRECTION ( 'NONE',  ( 0.0000000000000000000, 0.0000000000000000000, -1.000000000000000000 ) ) ;
#174 = ORIENTED_EDGE ( 'NONE', *, *, #171, .F. ) ;
#175 = DIRECTION ( 'NONE',  ( -0.0000000000000000000, -1.000000000000000000, -0.0000000000000000000 ) ) ;
#176 = AXIS2_PLACEMENT_3D ( 'NONE', #350, #255, #284 ) ;
#177 = DIRECTION ( 'NONE',  ( 0.0000000000000000000, 0.0000000000000000000, -1.000000000000000000 ) ) ;
#178 = PERSON_AND_ORGANIZATION ( #113, #388 ) ;
#179 = ORIENTED_EDGE ( 'NONE', *, *, #233, .F. ) ;
#180 = CIRCLE ( 'NONE', #46, 19.00000000000000000 ) ;
#181 = CARTESIAN_POINT ( 'NONE',  ( 0.0000000000000000000, 0.0000000000000000000, 0.0000000000000000000 ) ) ;
#182 = DATE_AND_TIME ( #226, #31 ) ;
#183 = DIRECTION ( 'NONE',  ( -0.0000000000000000000, -1.000000000000000000, -0.0000000000000000000 ) ) ;
#184 = CARTESIAN_POINT ( 'NONE',  ( 2.326828918379971000E-015, 0.0000000000000000000, 19.00000000000000000 ) ) ;
#185 = PERSON_AND_ORGANIZATION ( #113, #388 ) ;
#186 = CARTESIAN_POINT ( 'NONE',  ( 0.0000000000000000000, 0.0000000000000000000, 0.0000000000000000000 ) ) ;
#187 = CIRCLE ( 'NONE', #168, 20.99999999999999600 ) ;
#188 = CARTESIAN_POINT ( 'NONE',  ( 0.0000000000000000000, 0.0000000000000000000, 0.0000000000000000000 ) ) ;
#189 = CARTESIAN_POINT ( 'NONE',  ( 0.0000000000000000000, 0.0000000000000000000, 0.0000000000000000000 ) ) ;
#190 = APPROVAL_DATE_TIME ( #66, #374 ) ;
#191 = AXIS2_PLACEMENT_3D ( 'NONE', #409, #122, #177 ) ;
#192 = FACE_OUTER_BOUND ( 'NONE', #235, .T. ) ;
#193 = EDGE_CURVE ( 'NONE', #43, #293, #11, .T. ) ;
#194 = DIRECTION ( 'NONE',  ( 0.0000000000000000000, 0.0000000000000000000, 1.000000000000000000 ) ) ;
#195 = ORIENTED_EDGE ( 'NONE', *, *, #197, .F. ) ;
#196 = ORIENTED_EDGE ( 'NONE', *, *, #64, .T. ) ;
#197 = EDGE_CURVE ( 'NONE', #357, #3, #187, .T. ) ;
#198 = AXIS2_PLACEMENT_3D ( 'NONE', #387, #194, #358 ) ;
#199 = ORIENTED_EDGE ( 'NONE', *, *, #328, .T. ) ;
#200 = SHAPE_DEFINITION_REPRESENTATION ( #356, #165 ) ;
#201 = CC_DESIGN_PERSON_AND_ORGANIZATION_ASSIGNMENT ( #15, #390, ( #99 ) ) ;
#202 = CARTESIAN_POINT ( 'NONE',  ( 2.816687638038912400E-015, 180.0000000000000000, 23.00000000000000000 ) ) ;
#203 = CARTESIAN_POINT ( 'NONE',  ( 0.0000000000000000000, 20.00000000000000000, 0.0000000000000000000 ) ) ;
#204 = ORIENTED_EDGE ( 'NONE', *, *, #319, .T. ) ;
#205 = CIRCLE ( 'NONE', #404, 23.00000000000000000 ) ;
#206 = ADVANCED_FACE ( 'NONE', ( #192 ), #80, .F. ) ;
#207 = CARTESIAN_POINT ( 'NONE',  ( 0.0000000000000000000, 166.9999999999999700, 0.0000000000000000000 ) ) ;
#208 = DIRECTION ( 'NONE',  ( -0.0000000000000000000, -1.000000000000000000, -0.0000000000000000000 ) ) ;
#209 = COORDINATED_UNIVERSAL_TIME_OFFSET ( 1, 0, .AHEAD. ) ;
#210 = EDGE_LOOP ( 'NONE', ( #338, #196 ) ) ;
#211 = EDGE_CURVE ( 'NONE', #170, #268, #158, .T. ) ;
#212 = ADVANCED_FACE ( 'NONE', ( #264 ), #30, .F. ) ;
#213 = DIRECTION ( 'NONE',  ( 0.0000000000000000000, 0.0000000000000000000, -1.000000000000000000 ) ) ;
#214 = CARTESIAN_POINT ( 'NONE',  ( -20.99999999999999600, 180.0000000000000000, 0.0000000000000000000 ) ) ;
#215 = EDGE_CURVE ( 'NONE', #16, #293, #300, .T. ) ;
#216 = EDGE_LOOP ( 'NONE', ( #241, #10, #199, #84 ) ) ;
#217 = CARTESIAN_POINT ( 'NONE',  ( 2.571758278209441300E-015, 180.0000000000000000, 20.99999999999999600 ) ) ;
#218 = DIRECTION ( 'NONE',  ( -0.0000000000000000000, -1.000000000000000000, -0.0000000000000000000 ) ) ;
#219 = CARTESIAN_POINT ( 'NONE',  ( 0.0000000000000000000, 180.0000000000000000, -20.99999999999999600 ) ) ;
#220 = EDGE_CURVE ( 'NONE', #378, #282, #363, .T. ) ;
#221 = DIRECTION ( 'NONE',  ( 0.0000000000000000000, -0.0000000000000000000, 1.000000000000000000 ) ) ;
#222 = APPROVAL_DATE_TIME ( #27, #114 ) ;
#223 = FACE_OUTER_BOUND ( 'NONE', #40, .T. ) ;
#224 = CC_DESIGN_PERSON_AND_ORGANIZATION_ASSIGNMENT ( #185, #166, ( #21 ) ) ;
#225 = CARTESIAN_POINT ( 'NONE',  ( 0.0000000000000000000, 0.0000000000000000000, 0.0000000000000000000 ) ) ;
#226 = CALENDAR_DATE ( 2022, 15, 11 ) ;
#227 = FACE_OUTER_BOUND ( 'NONE', #62, .T. ) ;
#228 =( LENGTH_UNIT ( ) NAMED_UNIT ( * ) SI_UNIT ( .MILLI., .METRE. ) );
#229 = ORIENTED_EDGE ( 'NONE', *, *, #386, .T. ) ;
#230 = ORIENTED_EDGE ( 'NONE', *, *, #23, .F. ) ;
#231 = APPROVAL_ROLE ( '' ) ;
#232 = ORIENTED_EDGE ( 'NONE', *, *, #259, .F. ) ;
#233 = EDGE_CURVE ( 'NONE', #131, #68, #137, .T. ) ;
#234 = DIRECTION ( 'NONE',  ( -0.0000000000000000000, -1.000000000000000000, -0.0000000000000000000 ) ) ;
#235 = EDGE_LOOP ( 'NONE', ( #230, #125, #260, #101 ) ) ;
#236 = DIRECTION ( 'NONE',  ( 0.0000000000000000000, 0.0000000000000000000, -1.000000000000000000 ) ) ;
#237 = CIRCLE ( 'NONE', #288, 21.00000000000000000 ) ;
#238 = CARTESIAN_POINT ( 'NONE',  ( 0.0000000000000000000, 0.0000000000000000000, -23.00000000000000000 ) ) ;
#239 = DIRECTION ( 'NONE',  ( 0.0000000000000000000, 0.0000000000000000000, -1.000000000000000000 ) ) ;
#240 = EDGE_LOOP ( 'NONE', ( #252, #397, #402, #159 ) ) ;
#241 = ORIENTED_EDGE ( 'NONE', *, *, #18, .F. ) ;
#242 = AXIS2_PLACEMENT_3D ( 'NONE', #336, #234, #236 ) ;
#243 = DIRECTION ( 'NONE',  ( -0.0000000000000000000, -1.000000000000000000, -0.0000000000000000000 ) ) ;
#244 = ADVANCED_FACE ( 'NONE', ( #96, #269 ), #117, .F. ) ;
#245 = AXIS2_PLACEMENT_3D ( 'NONE', #188, #349, #35 ) ;
#246 = DIRECTION ( 'NONE',  ( -0.0000000000000000000, -1.000000000000000000, -0.0000000000000000000 ) ) ;
#247 = DIRECTION ( 'NONE',  ( -0.0000000000000000000, -1.000000000000000000, -0.0000000000000000000 ) ) ;
#248 = FACE_OUTER_BOUND ( 'NONE', #56, .T. ) ;
#249 = PERSON_AND_ORGANIZATION ( #113, #388 ) ;
#250 = DIRECTION ( 'NONE',  ( 0.0000000000000000000, 0.0000000000000000000, -1.000000000000000000 ) ) ;
#251 = ORIENTED_EDGE ( 'NONE', *, *, #193, .T. ) ;
#252 = ORIENTED_EDGE ( 'NONE', *, *, #259, .T. ) ;
#253 = CARTESIAN_POINT ( 'NONE',  ( 0.0000000000000000000, 0.0000000000000000000, -19.00000000000000000 ) ) ;
#254 = CARTESIAN_POINT ( 'NONE',  ( 2.571758278209441300E-015, 0.0000000000000000000, 20.99999999999999600 ) ) ;
#255 = DIRECTION ( 'NONE',  ( 0.0000000000000000000, 1.000000000000000000, 0.0000000000000000000 ) ) ;
#256 = ORIENTED_EDGE ( 'NONE', *, *, #25, .F. ) ;
#257 = DIRECTION ( 'NONE',  ( -0.0000000000000000000, -1.000000000000000000, -0.0000000000000000000 ) ) ;
#258 = DIRECTION ( 'NONE',  ( -0.0000000000000000000, -1.000000000000000000, -0.0000000000000000000 ) ) ;
#259 = EDGE_CURVE ( 'NONE', #111, #16, #205, .T. ) ;
#260 = ORIENTED_EDGE ( 'NONE', *, *, #233, .T. ) ;
#261 = APPROVAL_STATUS ( 'not_yet_approved' ) ;
#262 = PERSON_AND_ORGANIZATION_ROLE ( 'creator' ) ;
#263 = EDGE_CURVE ( 'NONE', #131, #163, #237, .T. ) ;
#264 = FACE_OUTER_BOUND ( 'NONE', #321, .T. ) ;
#265 = AXIS2_PLACEMENT_3D ( 'NONE', #172, #50, #395 ) ;
#266 = CC_DESIGN_DATE_AND_TIME_ASSIGNMENT ( #267, #45, ( #361 ) ) ;
#267 = DATE_AND_TIME ( #116, #330 ) ;
#268 = VERTEX_POINT ( 'NONE', #55 ) ;
#269 = FACE_BOUND ( 'NONE', #210, .T. ) ;
#270 = PERSON_AND_ORGANIZATION ( #113, #388 ) ;
#271 = CARTESIAN_POINT ( 'NONE',  ( -19.00000000000000000, 166.9999999999999700, 0.0000000000000000000 ) ) ;
#272 = ADVANCED_FACE ( 'NONE', ( #323 ), #156, .T. ) ;
#273 = ORIENTED_EDGE ( 'NONE', *, *, #132, .F. ) ;
#274 = CARTESIAN_POINT ( 'NONE',  ( 2.571758278209441700E-015, 20.00000000000000000, 21.00000000000000000 ) ) ;
#275 = FACE_OUTER_BOUND ( 'NONE', #51, .T. ) ;
#276 = AXIS2_PLACEMENT_3D ( 'NONE', #318, #258, #70 ) ;
#277 = CARTESIAN_POINT ( 'NONE',  ( 2.571758278209441300E-015, 166.9999999999999700, 20.99999999999999600 ) ) ;
#278 = CARTESIAN_POINT ( 'NONE',  ( 0.0000000000000000000, 0.0000000000000000000, 0.0000000000000000000 ) ) ;
#279 = PERSON_AND_ORGANIZATION ( #113, #388 ) ;
#280 = LINE ( 'NONE', #401, #74 ) ;
#281 = CALENDAR_DATE ( 2022, 15, 11 ) ;
#282 = VERTEX_POINT ( 'NONE', #217 ) ;
#283 = VECTOR ( 'NONE', #1, 1000.000000000000000 ) ;
#284 = DIRECTION ( 'NONE',  ( 0.0000000000000000000, -0.0000000000000000000, 1.000000000000000000 ) ) ;
#285 = CARTESIAN_POINT ( 'NONE',  ( 0.0000000000000000000, 166.9999999999999700, 0.0000000000000000000 ) ) ;
#286 = EDGE_CURVE ( 'NONE', #68, #36, #294, .T. ) ;
#287 = DIRECTION ( 'NONE',  ( -0.0000000000000000000, -1.000000000000000000, -0.0000000000000000000 ) ) ;
#288 = AXIS2_PLACEMENT_3D ( 'NONE', #124, #175, #85 ) ;
#289 = CARTESIAN_POINT ( 'NONE',  ( 0.0000000000000000000, 166.9999999999999700, 0.0000000000000000000 ) ) ;
#290 = APPROVAL_STATUS ( 'not_yet_approved' ) ;
#291 = VECTOR ( 'NONE', #98, 1000.000000000000000 ) ;
#292 = APPROVAL_ROLE ( '' ) ;
#293 = VERTEX_POINT ( 'NONE', #343 ) ;
#294 = CIRCLE ( 'NONE', #54, 21.00000000000000000 ) ;
#295 =( GEOMETRIC_REPRESENTATION_CONTEXT ( 3 ) GLOBAL_UNCERTAINTY_ASSIGNED_CONTEXT ( ( #324 ) ) GLOBAL_UNIT_ASSIGNED_CONTEXT ( ( #228, #73, #322 ) ) REPRESENTATION_CONTEXT ( 'NONE', 'WORKASPACE' ) );
#296 = ORIENTED_EDGE ( 'NONE', *, *, #132, .T. ) ;
#297 = LINE ( 'NONE', #254, #291 ) ;
#298 = CARTESIAN_POINT ( 'NONE',  ( 2.326828918379971000E-015, 166.9999999999999700, 19.00000000000000000 ) ) ;
#299 = EDGE_LOOP ( 'NONE', ( #359, #383 ) ) ;
#300 = LINE ( 'NONE', #91, #379 ) ;
#301 = EDGE_CURVE ( 'NONE', #163, #131, #312, .T. ) ;
#302 = CARTESIAN_POINT ( 'NONE',  ( 0.0000000000000000000, 180.0000000000000000, -23.00000000000000000 ) ) ;
#303 = AXIS2_PLACEMENT_3D ( 'NONE', #271, #335, #52 ) ;
#304 = CARTESIAN_POINT ( 'NONE',  ( 0.0000000000000000000, 166.9999999999999700, -19.00000000000000000 ) ) ;
#305 = ORIENTED_EDGE ( 'NONE', *, *, #391, .T. ) ;
#306 = LOCAL_TIME ( 11, 3, 40.00000000000000000, #12 ) ;
#307 = AXIS2_PLACEMENT_3D ( 'NONE', #289, #127, #381 ) ;
#308 = DIRECTION ( 'NONE',  ( 0.0000000000000000000, 0.0000000000000000000, -1.000000000000000000 ) ) ;
#309 = CARTESIAN_POINT ( 'NONE',  ( 0.0000000000000000000, 0.0000000000000000000, 0.0000000000000000000 ) ) ;
#310 = CYLINDRICAL_SURFACE ( 'NONE', #161, 23.00000000000000000 ) ;
#311 = ORIENTED_EDGE ( 'NONE', *, *, #220, .F. ) ;
#312 = CIRCLE ( 'NONE', #276, 21.00000000000000000 ) ;
#313 = DIRECTION ( 'NONE',  ( -0.0000000000000000000, -1.000000000000000000, -0.0000000000000000000 ) ) ;
#314 = PLANE ( 'NONE',  #176 ) ;
#315 = DIRECTION ( 'NONE',  ( 0.0000000000000000000, 0.0000000000000000000, -1.000000000000000000 ) ) ;
#316 = CLOSED_SHELL ( 'NONE', ( #272, #371, #32, #59, #337, #206, #398, #396, #86, #212, #244, #406 ) ) ;
#317 = DIRECTION ( 'NONE',  ( -0.0000000000000000000, -1.000000000000000000, -0.0000000000000000000 ) ) ;
#318 = CARTESIAN_POINT ( 'NONE',  ( 0.0000000000000000000, 20.00000000000000000, 0.0000000000000000000 ) ) ;
#319 = EDGE_CURVE ( 'NONE', #111, #43, #44, .T. ) ;
#320 = CIRCLE ( 'NONE', #307, 20.99999999999999600 ) ;
#321 = EDGE_LOOP ( 'NONE', ( #367, #311, #296, #47 ) ) ;
#322 =( NAMED_UNIT ( * ) SI_UNIT ( $, .STERADIAN. ) SOLID_ANGLE_UNIT ( ) );
#323 = FACE_OUTER_BOUND ( 'NONE', #240, .T. ) ;
#324 = UNCERTAINTY_MEASURE_WITH_UNIT (LENGTH_MEASURE( 1.000000000000000100E-005 ), #228, 'distance_accuracy_value', 'NONE');
#325 = APPLICATION_PROTOCOL_DEFINITION ( 'international standard', 'config_control_design', 1994, #134 ) ;
#326 = ORIENTED_EDGE ( 'NONE', *, *, #215, .F. ) ;
#327 = EDGE_LOOP ( 'NONE', ( #144, #24 ) ) ;
#328 = EDGE_CURVE ( 'NONE', #148, #268, #67, .T. ) ;
#329 = CC_DESIGN_APPROVAL ( #114, ( #361 ) ) ;
#330 = LOCAL_TIME ( 11, 3, 40.00000000000000000, #92 ) ;
#331 = ORIENTED_EDGE ( 'NONE', *, *, #286, .F. ) ;
#332 = DIRECTION ( 'NONE',  ( 0.0000000000000000000, 0.0000000000000000000, -1.000000000000000000 ) ) ;
#333 = VECTOR ( 'NONE', #399, 1000.000000000000000 ) ;
#334 = APPROVAL_PERSON_ORGANIZATION ( #270, #341, #292 ) ;
#335 = DIRECTION ( 'NONE',  ( 0.0000000000000000000, -1.000000000000000000, -0.0000000000000000000 ) ) ;
#336 = CARTESIAN_POINT ( 'NONE',  ( 0.0000000000000000000, 180.0000000000000000, 0.0000000000000000000 ) ) ;
#337 = ADVANCED_FACE ( 'NONE', ( #147, #223 ), #95, .F. ) ;
#338 = ORIENTED_EDGE ( 'NONE', *, *, #220, .T. ) ;
#339 = DIRECTION ( 'NONE',  ( -0.0000000000000000000, -1.000000000000000000, -0.0000000000000000000 ) ) ;
#340 = DIRECTION ( 'NONE',  ( 0.0000000000000000000, 0.0000000000000000000, -1.000000000000000000 ) ) ;
#341 = APPROVAL ( #290, 'UNSPECIFIED' ) ;
#342 = AXIS2_PLACEMENT_3D ( 'NONE', #214, #115, #149 ) ;
#343 = CARTESIAN_POINT ( 'NONE',  ( 2.816687638038912400E-015, 0.0000000000000000000, 23.00000000000000000 ) ) ;
#344 = FACE_OUTER_BOUND ( 'NONE', #393, .T. ) ;
#345 = COORDINATED_UNIVERSAL_TIME_OFFSET ( 1, 0, .AHEAD. ) ;
#346 = CARTESIAN_POINT ( 'NONE',  ( 2.326828918379971000E-015, 20.00000000000000000, 19.00000000000000000 ) ) ;
#347 = DIRECTION ( 'NONE',  ( 0.0000000000000000000, 0.0000000000000000000, -1.000000000000000000 ) ) ;
#348 = EDGE_CURVE ( 'NONE', #170, #118, #8, .T. ) ;
#349 = DIRECTION ( 'NONE',  ( -0.0000000000000000000, -1.000000000000000000, -0.0000000000000000000 ) ) ;
#350 = CARTESIAN_POINT ( 'NONE',  ( -21.00000000000000000, 20.00000000000000000, 0.0000000000000000000 ) ) ;
#351 = AXIS2_PLACEMENT_3D ( 'NONE', #181, #376, #308 ) ;
#352 = CARTESIAN_POINT ( 'NONE',  ( 0.0000000000000000000, 20.00000000000000000, 0.0000000000000000000 ) ) ;
#353 = AXIS2_PLACEMENT_3D ( 'NONE', #225, #2, #377 ) ;
#354 = DIRECTION ( 'NONE',  ( -0.0000000000000000000, -1.000000000000000000, -0.0000000000000000000 ) ) ;
#355 = CALENDAR_DATE ( 2022, 15, 11 ) ;
#356 = PRODUCT_DEFINITION_SHAPE ( 'NONE', 'NONE',  #361 ) ;
#357 = VERTEX_POINT ( 'NONE', #65 ) ;
#358 = DIRECTION ( 'NONE',  ( 1.000000000000000000, 0.0000000000000000000, 0.0000000000000000000 ) ) ;
#359 = ORIENTED_EDGE ( 'NONE', *, *, #5, .F. ) ;
#360 = FACE_OUTER_BOUND ( 'NONE', #216, .T. ) ;
#361 = PRODUCT_DEFINITION ( 'UNKNOWN', '', #400, #119 ) ;
#362 = APPROVAL_PERSON_ORGANIZATION ( #38, #374, #231 ) ;
#363 = CIRCLE ( 'NONE', #69, 20.99999999999999600 ) ;
#364 = AXIS2_PLACEMENT_3D ( 'NONE', #26, #246, #340 ) ;
#365 = DIRECTION ( 'NONE',  ( -0.0000000000000000000, -1.000000000000000000, -0.0000000000000000000 ) ) ;
#366 = EDGE_CURVE ( 'NONE', #3, #357, #320, .T. ) ;
#367 = ORIENTED_EDGE ( 'NONE', *, *, #386, .F. ) ;
#368 = DIRECTION ( 'NONE',  ( -0.0000000000000000000, -1.000000000000000000, -0.0000000000000000000 ) ) ;
#369 = ORIENTED_EDGE ( 'NONE', *, *, #366, .T. ) ;
#370 = EDGE_CURVE ( 'NONE', #118, #148, #162, .T. ) ;
#371 = ADVANCED_FACE ( 'NONE', ( #248 ), #403, .F. ) ;
#372 = CALENDAR_DATE ( 2022, 15, 11 ) ;
#373 = ORIENTED_EDGE ( 'NONE', *, *, #23, .T. ) ;
#374 = APPROVAL ( #136, 'UNSPECIFIED' ) ;
#375 = DIRECTION ( 'NONE',  ( 0.0000000000000000000, 0.0000000000000000000, -1.000000000000000000 ) ) ;
#376 = DIRECTION ( 'NONE',  ( -0.0000000000000000000, -1.000000000000000000, -0.0000000000000000000 ) ) ;
#377 = DIRECTION ( 'NONE',  ( 0.0000000000000000000, 0.0000000000000000000, -1.000000000000000000 ) ) ;
#378 = VERTEX_POINT ( 'NONE', #219 ) ;
#379 = VECTOR ( 'NONE', #247, 1000.000000000000000 ) ;
#380 = DIRECTION ( 'NONE',  ( 0.0000000000000000000, 1.000000000000000000, 0.0000000000000000000 ) ) ;
#381 = DIRECTION ( 'NONE',  ( 0.0000000000000000000, 0.0000000000000000000, -1.000000000000000000 ) ) ;
#382 = AXIS2_PLACEMENT_3D ( 'NONE', #352, #257, #129 ) ;
#383 = ORIENTED_EDGE ( 'NONE', *, *, #328, .F. ) ;
#384 = CARTESIAN_POINT ( 'NONE',  ( -23.00000000000000000, 0.0000000000000000000, 0.0000000000000000000 ) ) ;
#385 = DATE_TIME_ROLE ( 'classification_date' ) ;
#386 = EDGE_CURVE ( 'NONE', #282, #3, #297, .T. ) ;
#387 = CARTESIAN_POINT ( 'NONE',  ( 0.0000000000000000000, 0.0000000000000000000, 0.0000000000000000000 ) ) ;
#388 = ORGANIZATION ( 'UNSPECIFIED', 'UNSPECIFIED', '' ) ;
#389 = CYLINDRICAL_SURFACE ( 'NONE', #265, 21.00000000000000000 ) ;
#390 = PERSON_AND_ORGANIZATION_ROLE ( 'classification_officer' ) ;
#391 = EDGE_CURVE ( 'NONE', #36, #68, #89, .T. ) ;
#392 = APPROVAL_PERSON_ORGANIZATION ( #249, #114, #102 ) ;
#393 = EDGE_LOOP ( 'NONE', ( #195, #106 ) ) ;
#394 = AXIS2_PLACEMENT_3D ( 'NONE', #203, #22, #239 ) ;
#395 = DIRECTION ( 'NONE',  ( 0.0000000000000000000, 0.0000000000000000000, -1.000000000000000000 ) ) ;
#396 = ADVANCED_FACE ( 'NONE', ( #60 ), #77, .F. ) ;
#397 = ORIENTED_EDGE ( 'NONE', *, *, #215, .T. ) ;
#398 = ADVANCED_FACE ( 'NONE', ( #123, #153 ), #314, .F. ) ;
#399 = DIRECTION ( 'NONE',  ( -0.0000000000000000000, -1.000000000000000000, -0.0000000000000000000 ) ) ;
#400 = PRODUCT_DEFINITION_FORMATION_WITH_SPECIFIED_SOURCE ( 'ANY', '', #21, .NOT_KNOWN. ) ;
#401 = CARTESIAN_POINT ( 'NONE',  ( 0.0000000000000000000, 0.0000000000000000000, -20.99999999999999600 ) ) ;
#402 = ORIENTED_EDGE ( 'NONE', *, *, #193, .F. ) ;
#403 = CYLINDRICAL_SURFACE ( 'NONE', #245, 20.99999999999999600 ) ;
#404 = AXIS2_PLACEMENT_3D ( 'NONE', #152, #243, #88 ) ;
#405 = CARTESIAN_POINT ( 'NONE',  ( 0.0000000000000000000, 166.9999999999999700, 0.0000000000000000000 ) ) ;
#406 = ADVANCED_FACE ( 'NONE', ( #227 ), #310, .T. ) ;
#407 = EDGE_LOOP ( 'NONE', ( #232, #256 ) ) ;
#408 = VECTOR ( 'NONE', #57, 1000.000000000000000 ) ;
#409 = CARTESIAN_POINT ( 'NONE',  ( 0.0000000000000000000, 0.0000000000000000000, 0.0000000000000000000 ) ) ;
ENDSEC;
END-ISO-10303-21;
