ISO-10303-21;
HEADER;
/* Generated by software containing ST-Developer
 * from STEP Tools, Inc. (www.steptools.com) 
 */

FILE_DESCRIPTION(
/* description */ (''),
/* implementation_level */ '2;1');

FILE_NAME(
/* name */ 'Grandcot.step',
/* time_stamp */ '2022-11-07T18:15:28+01:00',
/* author */ (''),
/* organization */ (''),
/* preprocessor_version */ 'ST-DEVELOPER v19.2',
/* originating_system */ 'Autodesk Translation Framework v11.17.0.187',

/* authorisation */ '');

FILE_SCHEMA (('AUTOMOTIVE_DESIGN { 1 0 10303 214 3 1 1 }'));
ENDSEC;

DATA;
#10=MECHANICAL_DESIGN_GEOMETRIC_PRESENTATION_REPRESENTATION('',(#13),#631);
#11=SHAPE_REPRESENTATION_RELATIONSHIP('SRR','None',#637,#12);
#12=ADVANCED_BREP_SHAPE_REPRESENTATION('',(#14),#630);
#13=STYLED_ITEM('',(#646),#14);
#14=MANIFOLD_SOLID_BREP('Corps2',#368);
#15=CONICAL_SURFACE('',#386,3.875,0.785398163397448);
#16=CONICAL_SURFACE('',#390,3.875,0.785398163397448);
#17=CONICAL_SURFACE('',#394,3.875,0.785398163397448);
#18=CONICAL_SURFACE('',#398,3.875,0.785398163397448);
#19=CONICAL_SURFACE('',#402,3.875,0.785398163397448);
#20=FACE_BOUND('',#59,.T.);
#21=FACE_BOUND('',#60,.T.);
#22=FACE_BOUND('',#61,.T.);
#23=FACE_BOUND('',#62,.T.);
#24=FACE_BOUND('',#63,.T.);
#25=FACE_BOUND('',#81,.T.);
#26=FACE_BOUND('',#82,.T.);
#27=FACE_BOUND('',#83,.T.);
#28=FACE_BOUND('',#84,.T.);
#29=FACE_BOUND('',#85,.T.);
#30=PLANE('',#373);
#31=PLANE('',#374);
#32=PLANE('',#385);
#33=PLANE('',#406);
#34=PLANE('',#409);
#35=PLANE('',#412);
#36=FACE_OUTER_BOUND('',#56,.T.);
#37=FACE_OUTER_BOUND('',#57,.T.);
#38=FACE_OUTER_BOUND('',#58,.T.);
#39=FACE_OUTER_BOUND('',#64,.T.);
#40=FACE_OUTER_BOUND('',#65,.T.);
#41=FACE_OUTER_BOUND('',#66,.T.);
#42=FACE_OUTER_BOUND('',#67,.T.);
#43=FACE_OUTER_BOUND('',#68,.T.);
#44=FACE_OUTER_BOUND('',#69,.T.);
#45=FACE_OUTER_BOUND('',#70,.T.);
#46=FACE_OUTER_BOUND('',#71,.T.);
#47=FACE_OUTER_BOUND('',#72,.T.);
#48=FACE_OUTER_BOUND('',#73,.T.);
#49=FACE_OUTER_BOUND('',#74,.T.);
#50=FACE_OUTER_BOUND('',#75,.T.);
#51=FACE_OUTER_BOUND('',#76,.T.);
#52=FACE_OUTER_BOUND('',#77,.T.);
#53=FACE_OUTER_BOUND('',#78,.T.);
#54=FACE_OUTER_BOUND('',#79,.T.);
#55=FACE_OUTER_BOUND('',#80,.T.);
#56=EDGE_LOOP('',(#241,#242,#243,#244));
#57=EDGE_LOOP('',(#245,#246,#247,#248));
#58=EDGE_LOOP('',(#249,#250,#251,#252,#253,#254,#255,#256));
#59=EDGE_LOOP('',(#257));
#60=EDGE_LOOP('',(#258));
#61=EDGE_LOOP('',(#259));
#62=EDGE_LOOP('',(#260));
#63=EDGE_LOOP('',(#261));
#64=EDGE_LOOP('',(#262,#263,#264,#265));
#65=EDGE_LOOP('',(#266,#267,#268,#269));
#66=EDGE_LOOP('',(#270,#271,#272,#273));
#67=EDGE_LOOP('',(#274,#275,#276,#277));
#68=EDGE_LOOP('',(#278,#279,#280,#281));
#69=EDGE_LOOP('',(#282,#283,#284,#285));
#70=EDGE_LOOP('',(#286,#287,#288,#289));
#71=EDGE_LOOP('',(#290,#291,#292,#293));
#72=EDGE_LOOP('',(#294,#295,#296,#297));
#73=EDGE_LOOP('',(#298,#299,#300,#301));
#74=EDGE_LOOP('',(#302,#303,#304,#305));
#75=EDGE_LOOP('',(#306,#307,#308,#309));
#76=EDGE_LOOP('',(#310,#311,#312,#313));
#77=EDGE_LOOP('',(#314,#315,#316,#317));
#78=EDGE_LOOP('',(#318,#319,#320,#321));
#79=EDGE_LOOP('',(#322,#323,#324,#325));
#80=EDGE_LOOP('',(#326,#327,#328,#329,#330,#331,#332,#333));
#81=EDGE_LOOP('',(#334));
#82=EDGE_LOOP('',(#335));
#83=EDGE_LOOP('',(#336));
#84=EDGE_LOOP('',(#337));
#85=EDGE_LOOP('',(#338));
#86=LINE('',#533,#112);
#87=LINE('',#536,#113);
#88=LINE('',#539,#114);
#89=LINE('',#541,#115);
#90=LINE('',#542,#116);
#91=LINE('',#545,#117);
#92=LINE('',#549,#118);
#93=LINE('',#553,#119);
#94=LINE('',#569,#120);
#95=LINE('',#570,#121);
#96=LINE('',#573,#122);
#97=LINE('',#574,#123);
#98=LINE('',#579,#124);
#99=LINE('',#582,#125);
#100=LINE('',#587,#126);
#101=LINE('',#590,#127);
#102=LINE('',#595,#128);
#103=LINE('',#598,#129);
#104=LINE('',#603,#130);
#105=LINE('',#606,#131);
#106=LINE('',#611,#132);
#107=LINE('',#614,#133);
#108=LINE('',#616,#134);
#109=LINE('',#620,#135);
#110=LINE('',#623,#136);
#111=LINE('',#624,#137);
#112=VECTOR('',#419,10.);
#113=VECTOR('',#422,10.);
#114=VECTOR('',#425,10.);
#115=VECTOR('',#426,10.);
#116=VECTOR('',#427,10.);
#117=VECTOR('',#430,10.);
#118=VECTOR('',#433,10.);
#119=VECTOR('',#436,10.);
#120=VECTOR('',#453,10.);
#121=VECTOR('',#454,10.);
#122=VECTOR('',#457,10.);
#123=VECTOR('',#458,10.);
#124=VECTOR('',#463,3.875);
#125=VECTOR('',#468,2.75);
#126=VECTOR('',#473,3.875);
#127=VECTOR('',#478,2.75);
#128=VECTOR('',#483,3.875);
#129=VECTOR('',#488,2.75);
#130=VECTOR('',#493,3.875);
#131=VECTOR('',#498,2.75);
#132=VECTOR('',#503,3.875);
#133=VECTOR('',#508,2.75);
#134=VECTOR('',#511,10.);
#135=VECTOR('',#516,10.);
#136=VECTOR('',#519,10.);
#137=VECTOR('',#520,10.);
#138=CIRCLE('',#371,1.);
#139=CIRCLE('',#372,1.);
#140=CIRCLE('',#375,1.);
#141=CIRCLE('',#376,3.00000000000002);
#142=CIRCLE('',#377,2.99999999999999);
#143=CIRCLE('',#378,2.75);
#144=CIRCLE('',#379,2.75);
#145=CIRCLE('',#380,2.75);
#146=CIRCLE('',#381,2.75);
#147=CIRCLE('',#382,2.75);
#148=CIRCLE('',#384,1.);
#149=CIRCLE('',#387,5.00000000000001);
#150=CIRCLE('',#388,2.75);
#151=CIRCLE('',#391,5.00000000000001);
#152=CIRCLE('',#392,2.75);
#153=CIRCLE('',#395,5.00000000000001);
#154=CIRCLE('',#396,2.75);
#155=CIRCLE('',#399,5.00000000000001);
#156=CIRCLE('',#400,2.75);
#157=CIRCLE('',#403,5.00000000000001);
#158=CIRCLE('',#404,2.75);
#159=CIRCLE('',#408,3.00000000000002);
#160=CIRCLE('',#411,2.99999999999999);
#161=VERTEX_POINT('',#529);
#162=VERTEX_POINT('',#530);
#163=VERTEX_POINT('',#532);
#164=VERTEX_POINT('',#534);
#165=VERTEX_POINT('',#538);
#166=VERTEX_POINT('',#540);
#167=VERTEX_POINT('',#544);
#168=VERTEX_POINT('',#546);
#169=VERTEX_POINT('',#548);
#170=VERTEX_POINT('',#550);
#171=VERTEX_POINT('',#552);
#172=VERTEX_POINT('',#555);
#173=VERTEX_POINT('',#557);
#174=VERTEX_POINT('',#559);
#175=VERTEX_POINT('',#561);
#176=VERTEX_POINT('',#563);
#177=VERTEX_POINT('',#566);
#178=VERTEX_POINT('',#567);
#179=VERTEX_POINT('',#572);
#180=VERTEX_POINT('',#576);
#181=VERTEX_POINT('',#578);
#182=VERTEX_POINT('',#584);
#183=VERTEX_POINT('',#586);
#184=VERTEX_POINT('',#592);
#185=VERTEX_POINT('',#594);
#186=VERTEX_POINT('',#600);
#187=VERTEX_POINT('',#602);
#188=VERTEX_POINT('',#608);
#189=VERTEX_POINT('',#610);
#190=VERTEX_POINT('',#618);
#191=VERTEX_POINT('',#622);
#192=EDGE_CURVE('',#161,#162,#138,.T.);
#193=EDGE_CURVE('',#162,#163,#86,.T.);
#194=EDGE_CURVE('',#163,#164,#139,.T.);
#195=EDGE_CURVE('',#164,#161,#87,.T.);
#196=EDGE_CURVE('',#164,#165,#88,.T.);
#197=EDGE_CURVE('',#165,#166,#89,.T.);
#198=EDGE_CURVE('',#161,#166,#90,.T.);
#199=EDGE_CURVE('',#163,#167,#91,.T.);
#200=EDGE_CURVE('',#168,#167,#140,.T.);
#201=EDGE_CURVE('',#169,#168,#92,.T.);
#202=EDGE_CURVE('',#170,#169,#141,.T.);
#203=EDGE_CURVE('',#171,#170,#93,.T.);
#204=EDGE_CURVE('',#165,#171,#142,.T.);
#205=EDGE_CURVE('',#172,#172,#143,.T.);
#206=EDGE_CURVE('',#173,#173,#144,.T.);
#207=EDGE_CURVE('',#174,#174,#145,.T.);
#208=EDGE_CURVE('',#175,#175,#146,.T.);
#209=EDGE_CURVE('',#176,#176,#147,.T.);
#210=EDGE_CURVE('',#177,#178,#148,.T.);
#211=EDGE_CURVE('',#178,#168,#94,.T.);
#212=EDGE_CURVE('',#167,#177,#95,.T.);
#213=EDGE_CURVE('',#179,#178,#96,.T.);
#214=EDGE_CURVE('',#169,#179,#97,.T.);
#215=EDGE_CURVE('',#180,#180,#149,.T.);
#216=EDGE_CURVE('',#180,#181,#98,.T.);
#217=EDGE_CURVE('',#181,#181,#150,.T.);
#218=EDGE_CURVE('',#181,#172,#99,.T.);
#219=EDGE_CURVE('',#182,#182,#151,.T.);
#220=EDGE_CURVE('',#182,#183,#100,.T.);
#221=EDGE_CURVE('',#183,#183,#152,.T.);
#222=EDGE_CURVE('',#183,#173,#101,.T.);
#223=EDGE_CURVE('',#184,#184,#153,.T.);
#224=EDGE_CURVE('',#184,#185,#102,.T.);
#225=EDGE_CURVE('',#185,#185,#154,.T.);
#226=EDGE_CURVE('',#185,#174,#103,.T.);
#227=EDGE_CURVE('',#186,#186,#155,.T.);
#228=EDGE_CURVE('',#186,#187,#104,.T.);
#229=EDGE_CURVE('',#187,#187,#156,.T.);
#230=EDGE_CURVE('',#187,#175,#105,.T.);
#231=EDGE_CURVE('',#188,#188,#157,.T.);
#232=EDGE_CURVE('',#188,#189,#106,.T.);
#233=EDGE_CURVE('',#189,#189,#158,.T.);
#234=EDGE_CURVE('',#189,#176,#107,.T.);
#235=EDGE_CURVE('',#177,#162,#108,.T.);
#236=EDGE_CURVE('',#190,#179,#159,.T.);
#237=EDGE_CURVE('',#170,#190,#109,.T.);
#238=EDGE_CURVE('',#191,#190,#110,.T.);
#239=EDGE_CURVE('',#171,#191,#111,.T.);
#240=EDGE_CURVE('',#166,#191,#160,.T.);
#241=ORIENTED_EDGE('',*,*,#192,.T.);
#242=ORIENTED_EDGE('',*,*,#193,.T.);
#243=ORIENTED_EDGE('',*,*,#194,.T.);
#244=ORIENTED_EDGE('',*,*,#195,.T.);
#245=ORIENTED_EDGE('',*,*,#195,.F.);
#246=ORIENTED_EDGE('',*,*,#196,.T.);
#247=ORIENTED_EDGE('',*,*,#197,.T.);
#248=ORIENTED_EDGE('',*,*,#198,.F.);
#249=ORIENTED_EDGE('',*,*,#194,.F.);
#250=ORIENTED_EDGE('',*,*,#199,.T.);
#251=ORIENTED_EDGE('',*,*,#200,.F.);
#252=ORIENTED_EDGE('',*,*,#201,.F.);
#253=ORIENTED_EDGE('',*,*,#202,.F.);
#254=ORIENTED_EDGE('',*,*,#203,.F.);
#255=ORIENTED_EDGE('',*,*,#204,.F.);
#256=ORIENTED_EDGE('',*,*,#196,.F.);
#257=ORIENTED_EDGE('',*,*,#205,.T.);
#258=ORIENTED_EDGE('',*,*,#206,.T.);
#259=ORIENTED_EDGE('',*,*,#207,.T.);
#260=ORIENTED_EDGE('',*,*,#208,.T.);
#261=ORIENTED_EDGE('',*,*,#209,.T.);
#262=ORIENTED_EDGE('',*,*,#210,.T.);
#263=ORIENTED_EDGE('',*,*,#211,.T.);
#264=ORIENTED_EDGE('',*,*,#200,.T.);
#265=ORIENTED_EDGE('',*,*,#212,.T.);
#266=ORIENTED_EDGE('',*,*,#211,.F.);
#267=ORIENTED_EDGE('',*,*,#213,.F.);
#268=ORIENTED_EDGE('',*,*,#214,.F.);
#269=ORIENTED_EDGE('',*,*,#201,.T.);
#270=ORIENTED_EDGE('',*,*,#215,.F.);
#271=ORIENTED_EDGE('',*,*,#216,.T.);
#272=ORIENTED_EDGE('',*,*,#217,.F.);
#273=ORIENTED_EDGE('',*,*,#216,.F.);
#274=ORIENTED_EDGE('',*,*,#217,.T.);
#275=ORIENTED_EDGE('',*,*,#218,.T.);
#276=ORIENTED_EDGE('',*,*,#205,.F.);
#277=ORIENTED_EDGE('',*,*,#218,.F.);
#278=ORIENTED_EDGE('',*,*,#219,.F.);
#279=ORIENTED_EDGE('',*,*,#220,.T.);
#280=ORIENTED_EDGE('',*,*,#221,.F.);
#281=ORIENTED_EDGE('',*,*,#220,.F.);
#282=ORIENTED_EDGE('',*,*,#221,.T.);
#283=ORIENTED_EDGE('',*,*,#222,.T.);
#284=ORIENTED_EDGE('',*,*,#206,.F.);
#285=ORIENTED_EDGE('',*,*,#222,.F.);
#286=ORIENTED_EDGE('',*,*,#223,.F.);
#287=ORIENTED_EDGE('',*,*,#224,.T.);
#288=ORIENTED_EDGE('',*,*,#225,.T.);
#289=ORIENTED_EDGE('',*,*,#224,.F.);
#290=ORIENTED_EDGE('',*,*,#225,.F.);
#291=ORIENTED_EDGE('',*,*,#226,.T.);
#292=ORIENTED_EDGE('',*,*,#207,.F.);
#293=ORIENTED_EDGE('',*,*,#226,.F.);
#294=ORIENTED_EDGE('',*,*,#227,.F.);
#295=ORIENTED_EDGE('',*,*,#228,.T.);
#296=ORIENTED_EDGE('',*,*,#229,.T.);
#297=ORIENTED_EDGE('',*,*,#228,.F.);
#298=ORIENTED_EDGE('',*,*,#229,.F.);
#299=ORIENTED_EDGE('',*,*,#230,.T.);
#300=ORIENTED_EDGE('',*,*,#208,.F.);
#301=ORIENTED_EDGE('',*,*,#230,.F.);
#302=ORIENTED_EDGE('',*,*,#231,.F.);
#303=ORIENTED_EDGE('',*,*,#232,.T.);
#304=ORIENTED_EDGE('',*,*,#233,.T.);
#305=ORIENTED_EDGE('',*,*,#232,.F.);
#306=ORIENTED_EDGE('',*,*,#233,.F.);
#307=ORIENTED_EDGE('',*,*,#234,.T.);
#308=ORIENTED_EDGE('',*,*,#209,.F.);
#309=ORIENTED_EDGE('',*,*,#234,.F.);
#310=ORIENTED_EDGE('',*,*,#193,.F.);
#311=ORIENTED_EDGE('',*,*,#235,.F.);
#312=ORIENTED_EDGE('',*,*,#212,.F.);
#313=ORIENTED_EDGE('',*,*,#199,.F.);
#314=ORIENTED_EDGE('',*,*,#202,.T.);
#315=ORIENTED_EDGE('',*,*,#214,.T.);
#316=ORIENTED_EDGE('',*,*,#236,.F.);
#317=ORIENTED_EDGE('',*,*,#237,.F.);
#318=ORIENTED_EDGE('',*,*,#203,.T.);
#319=ORIENTED_EDGE('',*,*,#237,.T.);
#320=ORIENTED_EDGE('',*,*,#238,.F.);
#321=ORIENTED_EDGE('',*,*,#239,.F.);
#322=ORIENTED_EDGE('',*,*,#204,.T.);
#323=ORIENTED_EDGE('',*,*,#239,.T.);
#324=ORIENTED_EDGE('',*,*,#240,.F.);
#325=ORIENTED_EDGE('',*,*,#197,.F.);
#326=ORIENTED_EDGE('',*,*,#192,.F.);
#327=ORIENTED_EDGE('',*,*,#198,.T.);
#328=ORIENTED_EDGE('',*,*,#240,.T.);
#329=ORIENTED_EDGE('',*,*,#238,.T.);
#330=ORIENTED_EDGE('',*,*,#236,.T.);
#331=ORIENTED_EDGE('',*,*,#213,.T.);
#332=ORIENTED_EDGE('',*,*,#210,.F.);
#333=ORIENTED_EDGE('',*,*,#235,.T.);
#334=ORIENTED_EDGE('',*,*,#215,.T.);
#335=ORIENTED_EDGE('',*,*,#219,.T.);
#336=ORIENTED_EDGE('',*,*,#223,.T.);
#337=ORIENTED_EDGE('',*,*,#227,.T.);
#338=ORIENTED_EDGE('',*,*,#231,.T.);
#339=CYLINDRICAL_SURFACE('',#370,1.);
#340=CYLINDRICAL_SURFACE('',#383,1.);
#341=CYLINDRICAL_SURFACE('',#389,2.75);
#342=CYLINDRICAL_SURFACE('',#393,2.75);
#343=CYLINDRICAL_SURFACE('',#397,2.75);
#344=CYLINDRICAL_SURFACE('',#401,2.75);
#345=CYLINDRICAL_SURFACE('',#405,2.75);
#346=CYLINDRICAL_SURFACE('',#407,3.00000000000002);
#347=CYLINDRICAL_SURFACE('',#410,2.99999999999999);
#348=ADVANCED_FACE('',(#36),#339,.T.);
#349=ADVANCED_FACE('',(#37),#30,.T.);
#350=ADVANCED_FACE('',(#38,#20,#21,#22,#23,#24),#31,.F.);
#351=ADVANCED_FACE('',(#39),#340,.T.);
#352=ADVANCED_FACE('',(#40),#32,.T.);
#353=ADVANCED_FACE('',(#41),#15,.F.);
#354=ADVANCED_FACE('',(#42),#341,.F.);
#355=ADVANCED_FACE('',(#43),#16,.F.);
#356=ADVANCED_FACE('',(#44),#342,.F.);
#357=ADVANCED_FACE('',(#45),#17,.F.);
#358=ADVANCED_FACE('',(#46),#343,.F.);
#359=ADVANCED_FACE('',(#47),#18,.F.);
#360=ADVANCED_FACE('',(#48),#344,.F.);
#361=ADVANCED_FACE('',(#49),#19,.F.);
#362=ADVANCED_FACE('',(#50),#345,.F.);
#363=ADVANCED_FACE('',(#51),#33,.T.);
#364=ADVANCED_FACE('',(#52),#346,.T.);
#365=ADVANCED_FACE('',(#53),#34,.T.);
#366=ADVANCED_FACE('',(#54),#347,.T.);
#367=ADVANCED_FACE('',(#55,#25,#26,#27,#28,#29),#35,.T.);
#368=CLOSED_SHELL('',(#348,#349,#350,#351,#352,#353,#354,#355,#356,#357,
#358,#359,#360,#361,#362,#363,#364,#365,#366,#367));
#369=AXIS2_PLACEMENT_3D('placement',#527,#413,#414);
#370=AXIS2_PLACEMENT_3D('',#528,#415,#416);
#371=AXIS2_PLACEMENT_3D('',#531,#417,#418);
#372=AXIS2_PLACEMENT_3D('',#535,#420,#421);
#373=AXIS2_PLACEMENT_3D('',#537,#423,#424);
#374=AXIS2_PLACEMENT_3D('',#543,#428,#429);
#375=AXIS2_PLACEMENT_3D('',#547,#431,#432);
#376=AXIS2_PLACEMENT_3D('',#551,#434,#435);
#377=AXIS2_PLACEMENT_3D('',#554,#437,#438);
#378=AXIS2_PLACEMENT_3D('',#556,#439,#440);
#379=AXIS2_PLACEMENT_3D('',#558,#441,#442);
#380=AXIS2_PLACEMENT_3D('',#560,#443,#444);
#381=AXIS2_PLACEMENT_3D('',#562,#445,#446);
#382=AXIS2_PLACEMENT_3D('',#564,#447,#448);
#383=AXIS2_PLACEMENT_3D('',#565,#449,#450);
#384=AXIS2_PLACEMENT_3D('',#568,#451,#452);
#385=AXIS2_PLACEMENT_3D('',#571,#455,#456);
#386=AXIS2_PLACEMENT_3D('',#575,#459,#460);
#387=AXIS2_PLACEMENT_3D('',#577,#461,#462);
#388=AXIS2_PLACEMENT_3D('',#580,#464,#465);
#389=AXIS2_PLACEMENT_3D('',#581,#466,#467);
#390=AXIS2_PLACEMENT_3D('',#583,#469,#470);
#391=AXIS2_PLACEMENT_3D('',#585,#471,#472);
#392=AXIS2_PLACEMENT_3D('',#588,#474,#475);
#393=AXIS2_PLACEMENT_3D('',#589,#476,#477);
#394=AXIS2_PLACEMENT_3D('',#591,#479,#480);
#395=AXIS2_PLACEMENT_3D('',#593,#481,#482);
#396=AXIS2_PLACEMENT_3D('',#596,#484,#485);
#397=AXIS2_PLACEMENT_3D('',#597,#486,#487);
#398=AXIS2_PLACEMENT_3D('',#599,#489,#490);
#399=AXIS2_PLACEMENT_3D('',#601,#491,#492);
#400=AXIS2_PLACEMENT_3D('',#604,#494,#495);
#401=AXIS2_PLACEMENT_3D('',#605,#496,#497);
#402=AXIS2_PLACEMENT_3D('',#607,#499,#500);
#403=AXIS2_PLACEMENT_3D('',#609,#501,#502);
#404=AXIS2_PLACEMENT_3D('',#612,#504,#505);
#405=AXIS2_PLACEMENT_3D('',#613,#506,#507);
#406=AXIS2_PLACEMENT_3D('',#615,#509,#510);
#407=AXIS2_PLACEMENT_3D('',#617,#512,#513);
#408=AXIS2_PLACEMENT_3D('',#619,#514,#515);
#409=AXIS2_PLACEMENT_3D('',#621,#517,#518);
#410=AXIS2_PLACEMENT_3D('',#625,#521,#522);
#411=AXIS2_PLACEMENT_3D('',#626,#523,#524);
#412=AXIS2_PLACEMENT_3D('',#627,#525,#526);
#413=DIRECTION('axis',(0.,0.,1.));
#414=DIRECTION('refdir',(1.,0.,0.));
#415=DIRECTION('center_axis',(-1.,0.,0.));
#416=DIRECTION('ref_axis',(0.,0.707106781186554,0.707106781186541));
#417=DIRECTION('center_axis',(1.,0.,0.));
#418=DIRECTION('ref_axis',(0.,0.707106781186554,0.707106781186541));
#419=DIRECTION('',(1.,0.,0.));
#420=DIRECTION('center_axis',(-1.,0.,0.));
#421=DIRECTION('ref_axis',(0.,0.707106781186554,0.707106781186541));
#422=DIRECTION('',(-1.,0.,0.));
#423=DIRECTION('center_axis',(0.,1.,0.));
#424=DIRECTION('ref_axis',(0.,0.,-1.));
#425=DIRECTION('',(0.,0.,-1.));
#426=DIRECTION('',(-1.,0.,0.));
#427=DIRECTION('',(0.,0.,-1.));
#428=DIRECTION('center_axis',(-1.,0.,0.));
#429=DIRECTION('ref_axis',(0.,-1.,0.));
#430=DIRECTION('',(0.,-1.,0.));
#431=DIRECTION('center_axis',(-1.,0.,0.));
#432=DIRECTION('ref_axis',(0.,-0.707106781186554,0.707106781186541));
#433=DIRECTION('',(0.,-3.01077430406822E-16,1.));
#434=DIRECTION('center_axis',(-1.,0.,0.));
#435=DIRECTION('ref_axis',(0.,-5.92118946466747E-15,-1.));
#436=DIRECTION('',(0.,-1.,-4.59918979372656E-17));
#437=DIRECTION('center_axis',(-1.,0.,0.));
#438=DIRECTION('ref_axis',(0.,1.,1.48029736616688E-15));
#439=DIRECTION('center_axis',(-1.,0.,0.));
#440=DIRECTION('ref_axis',(0.,1.,0.));
#441=DIRECTION('center_axis',(-1.,0.,0.));
#442=DIRECTION('ref_axis',(0.,1.,0.));
#443=DIRECTION('center_axis',(-1.,0.,0.));
#444=DIRECTION('ref_axis',(0.,-1.,0.));
#445=DIRECTION('center_axis',(-1.,0.,0.));
#446=DIRECTION('ref_axis',(0.,-1.,0.));
#447=DIRECTION('center_axis',(-1.,0.,0.));
#448=DIRECTION('ref_axis',(0.,-1.,0.));
#449=DIRECTION('center_axis',(-1.,0.,0.));
#450=DIRECTION('ref_axis',(0.,-0.707106781186554,0.707106781186541));
#451=DIRECTION('center_axis',(1.,0.,0.));
#452=DIRECTION('ref_axis',(0.,-0.707106781186554,0.707106781186541));
#453=DIRECTION('',(1.,0.,0.));
#454=DIRECTION('',(-1.,0.,0.));
#455=DIRECTION('center_axis',(0.,-1.,-3.01077430406822E-16));
#456=DIRECTION('ref_axis',(0.,-3.01077430406822E-16,1.));
#457=DIRECTION('',(0.,-3.01077430406822E-16,1.));
#458=DIRECTION('',(-1.,0.,0.));
#459=DIRECTION('center_axis',(-1.,0.,0.));
#460=DIRECTION('ref_axis',(0.,1.,0.));
#461=DIRECTION('center_axis',(1.,0.,0.));
#462=DIRECTION('ref_axis',(0.,1.,0.));
#463=DIRECTION('',(0.707106781186548,0.707106781186547,-8.65956056235493E-17));
#464=DIRECTION('center_axis',(-1.,0.,0.));
#465=DIRECTION('ref_axis',(0.,1.,0.));
#466=DIRECTION('center_axis',(-1.,0.,0.));
#467=DIRECTION('ref_axis',(0.,1.,0.));
#468=DIRECTION('',(1.,0.,0.));
#469=DIRECTION('center_axis',(-1.,0.,0.));
#470=DIRECTION('ref_axis',(0.,1.,0.));
#471=DIRECTION('center_axis',(1.,0.,0.));
#472=DIRECTION('ref_axis',(0.,1.,0.));
#473=DIRECTION('',(0.707106781186548,0.707106781186547,-8.65956056235493E-17));
#474=DIRECTION('center_axis',(-1.,0.,0.));
#475=DIRECTION('ref_axis',(0.,1.,0.));
#476=DIRECTION('center_axis',(-1.,0.,0.));
#477=DIRECTION('ref_axis',(0.,1.,0.));
#478=DIRECTION('',(1.,0.,0.));
#479=DIRECTION('center_axis',(-1.,0.,0.));
#480=DIRECTION('ref_axis',(0.,-1.,0.));
#481=DIRECTION('center_axis',(1.,0.,0.));
#482=DIRECTION('ref_axis',(0.,-1.,0.));
#483=DIRECTION('',(0.707106781186548,-0.707106781186547,-8.65956056235493E-17));
#484=DIRECTION('center_axis',(1.,0.,0.));
#485=DIRECTION('ref_axis',(0.,-1.,0.));
#486=DIRECTION('center_axis',(1.,0.,0.));
#487=DIRECTION('ref_axis',(0.,-1.,0.));
#488=DIRECTION('',(1.,0.,0.));
#489=DIRECTION('center_axis',(-1.,0.,0.));
#490=DIRECTION('ref_axis',(0.,-1.,0.));
#491=DIRECTION('center_axis',(1.,0.,0.));
#492=DIRECTION('ref_axis',(0.,-1.,0.));
#493=DIRECTION('',(0.707106781186548,-0.707106781186547,-8.65956056235493E-17));
#494=DIRECTION('center_axis',(1.,0.,0.));
#495=DIRECTION('ref_axis',(0.,-1.,0.));
#496=DIRECTION('center_axis',(1.,0.,0.));
#497=DIRECTION('ref_axis',(0.,-1.,0.));
#498=DIRECTION('',(1.,0.,0.));
#499=DIRECTION('center_axis',(-1.,0.,0.));
#500=DIRECTION('ref_axis',(0.,-1.,0.));
#501=DIRECTION('center_axis',(1.,0.,0.));
#502=DIRECTION('ref_axis',(0.,-1.,0.));
#503=DIRECTION('',(0.707106781186548,-0.707106781186547,-8.65956056235493E-17));
#504=DIRECTION('center_axis',(1.,0.,0.));
#505=DIRECTION('ref_axis',(0.,-1.,0.));
#506=DIRECTION('center_axis',(1.,0.,0.));
#507=DIRECTION('ref_axis',(0.,-1.,0.));
#508=DIRECTION('',(1.,0.,0.));
#509=DIRECTION('center_axis',(0.,0.,1.));
#510=DIRECTION('ref_axis',(0.,1.,0.));
#511=DIRECTION('',(0.,1.,0.));
#512=DIRECTION('center_axis',(-1.,0.,0.));
#513=DIRECTION('ref_axis',(0.,-5.92118946466747E-15,-1.));
#514=DIRECTION('center_axis',(-1.,0.,0.));
#515=DIRECTION('ref_axis',(0.,-5.92118946466747E-15,-1.));
#516=DIRECTION('',(-1.,0.,0.));
#517=DIRECTION('center_axis',(0.,4.59918979372656E-17,-1.));
#518=DIRECTION('ref_axis',(0.,-1.,-4.59918979372656E-17));
#519=DIRECTION('',(0.,-1.,-4.59918979372656E-17));
#520=DIRECTION('',(-1.,0.,0.));
#521=DIRECTION('center_axis',(-1.,0.,0.));
#522=DIRECTION('ref_axis',(0.,1.,1.48029736616688E-15));
#523=DIRECTION('center_axis',(-1.,0.,0.));
#524=DIRECTION('ref_axis',(0.,1.,1.48029736616688E-15));
#525=DIRECTION('center_axis',(-1.,0.,0.));
#526=DIRECTION('ref_axis',(0.,-1.,0.));
#527=CARTESIAN_POINT('',(0.,0.,0.));
#528=CARTESIAN_POINT('Origin',(-163.,131.75,59.));
#529=CARTESIAN_POINT('',(-167.,132.75,59.));
#530=CARTESIAN_POINT('',(-167.,131.75,60.));
#531=CARTESIAN_POINT('Origin',(-167.,131.75,59.));
#532=CARTESIAN_POINT('',(-163.,131.75,60.));
#533=CARTESIAN_POINT('',(-163.,131.75,60.));
#534=CARTESIAN_POINT('',(-163.,132.75,59.));
#535=CARTESIAN_POINT('Origin',(-163.,131.75,59.));
#536=CARTESIAN_POINT('',(-163.,132.75,59.));
#537=CARTESIAN_POINT('Origin',(-163.,132.75,60.));
#538=CARTESIAN_POINT('',(-163.,132.75,1.00000000000001));
#539=CARTESIAN_POINT('',(-163.,132.75,60.));
#540=CARTESIAN_POINT('',(-167.,132.75,1.00000000000001));
#541=CARTESIAN_POINT('',(-163.,132.75,1.00000000000001));
#542=CARTESIAN_POINT('',(-167.,132.75,60.));
#543=CARTESIAN_POINT('Origin',(-163.,0.,29.));
#544=CARTESIAN_POINT('',(-163.,-131.75,60.));
#545=CARTESIAN_POINT('',(-163.,132.75,60.));
#546=CARTESIAN_POINT('',(-163.,-132.75,59.));
#547=CARTESIAN_POINT('Origin',(-163.,-131.75,59.));
#548=CARTESIAN_POINT('',(-163.,-132.75,0.999999999999997));
#549=CARTESIAN_POINT('',(-163.,-132.75,0.999999999999997));
#550=CARTESIAN_POINT('',(-163.,-129.75,-2.));
#551=CARTESIAN_POINT('Origin',(-163.,-129.75,1.00000000000001));
#552=CARTESIAN_POINT('',(-163.,129.75,-1.99999999999999));
#553=CARTESIAN_POINT('',(-163.,129.75,-1.99999999999999));
#554=CARTESIAN_POINT('Origin',(-163.,129.75,1.));
#555=CARTESIAN_POINT('',(-163.,-128.5,46.5));
#556=CARTESIAN_POINT('Origin',(-163.,-125.75,46.5));
#557=CARTESIAN_POINT('',(-163.,-85.5,11.5));
#558=CARTESIAN_POINT('Origin',(-163.,-82.75,11.5));
#559=CARTESIAN_POINT('',(-163.,2.75000000000001,46.55));
#560=CARTESIAN_POINT('Origin',(-163.,5.28854367988961E-15,46.55));
#561=CARTESIAN_POINT('',(-163.,128.5,46.5));
#562=CARTESIAN_POINT('Origin',(-163.,125.75,46.5));
#563=CARTESIAN_POINT('',(-163.,85.5,11.5));
#564=CARTESIAN_POINT('Origin',(-163.,82.75,11.5));
#565=CARTESIAN_POINT('Origin',(-163.,-131.75,59.));
#566=CARTESIAN_POINT('',(-167.,-131.75,60.));
#567=CARTESIAN_POINT('',(-167.,-132.75,59.));
#568=CARTESIAN_POINT('Origin',(-167.,-131.75,59.));
#569=CARTESIAN_POINT('',(-163.,-132.75,59.));
#570=CARTESIAN_POINT('',(-163.,-131.75,60.));
#571=CARTESIAN_POINT('Origin',(-163.,-132.75,0.999999999999997));
#572=CARTESIAN_POINT('',(-167.,-132.75,0.999999999999997));
#573=CARTESIAN_POINT('',(-167.,-132.75,0.999999999999997));
#574=CARTESIAN_POINT('',(-163.,-132.75,0.999999999999997));
#575=CARTESIAN_POINT('Origin',(-165.875,-125.75,46.5));
#576=CARTESIAN_POINT('',(-167.,-130.75,46.5));
#577=CARTESIAN_POINT('Origin',(-167.,-125.75,46.5));
#578=CARTESIAN_POINT('',(-164.75,-128.5,46.5));
#579=CARTESIAN_POINT('',(-165.875,-129.625,46.5));
#580=CARTESIAN_POINT('Origin',(-164.75,-125.75,46.5));
#581=CARTESIAN_POINT('Origin',(-159.,-125.75,46.5));
#582=CARTESIAN_POINT('',(-159.,-128.5,46.5));
#583=CARTESIAN_POINT('Origin',(-165.875,-82.75,11.5));
#584=CARTESIAN_POINT('',(-167.,-87.75,11.5));
#585=CARTESIAN_POINT('Origin',(-167.,-82.75,11.5));
#586=CARTESIAN_POINT('',(-164.75,-85.5,11.5));
#587=CARTESIAN_POINT('',(-165.875,-86.625,11.5));
#588=CARTESIAN_POINT('Origin',(-164.75,-82.75,11.5));
#589=CARTESIAN_POINT('Origin',(-159.,-82.75,11.5));
#590=CARTESIAN_POINT('',(-159.,-85.5,11.5));
#591=CARTESIAN_POINT('Origin',(-165.875,5.28854367988961E-15,46.55));
#592=CARTESIAN_POINT('',(-167.,4.99999999999999,46.55));
#593=CARTESIAN_POINT('Origin',(-167.,5.28854367988961E-15,46.55));
#594=CARTESIAN_POINT('',(-164.75,2.75,46.55));
#595=CARTESIAN_POINT('',(-165.875,3.87500000000001,46.55));
#596=CARTESIAN_POINT('Origin',(-164.75,5.28854367988961E-15,46.55));
#597=CARTESIAN_POINT('Origin',(-159.,5.28854367988961E-15,46.55));
#598=CARTESIAN_POINT('',(-159.,2.75000000000001,46.55));
#599=CARTESIAN_POINT('Origin',(-165.875,125.75,46.5));
#600=CARTESIAN_POINT('',(-167.,130.75,46.5));
#601=CARTESIAN_POINT('Origin',(-167.,125.75,46.5));
#602=CARTESIAN_POINT('',(-164.75,128.5,46.5));
#603=CARTESIAN_POINT('',(-165.875,129.625,46.5));
#604=CARTESIAN_POINT('Origin',(-164.75,125.75,46.5));
#605=CARTESIAN_POINT('Origin',(-159.,125.75,46.5));
#606=CARTESIAN_POINT('',(-159.,128.5,46.5));
#607=CARTESIAN_POINT('Origin',(-165.875,82.75,11.5));
#608=CARTESIAN_POINT('',(-167.,87.75,11.5));
#609=CARTESIAN_POINT('Origin',(-167.,82.75,11.5));
#610=CARTESIAN_POINT('',(-164.75,85.5,11.5));
#611=CARTESIAN_POINT('',(-165.875,86.625,11.5));
#612=CARTESIAN_POINT('Origin',(-164.75,82.75,11.5));
#613=CARTESIAN_POINT('Origin',(-159.,82.75,11.5));
#614=CARTESIAN_POINT('',(-159.,85.5,11.5));
#615=CARTESIAN_POINT('Origin',(-163.,-132.75,60.));
#616=CARTESIAN_POINT('',(-167.,132.75,60.));
#617=CARTESIAN_POINT('Origin',(-163.,-129.75,1.00000000000001));
#618=CARTESIAN_POINT('',(-167.,-129.75,-2.));
#619=CARTESIAN_POINT('Origin',(-167.,-129.75,1.00000000000001));
#620=CARTESIAN_POINT('',(-163.,-129.75,-2.));
#621=CARTESIAN_POINT('Origin',(-163.,129.75,-1.99999999999999));
#622=CARTESIAN_POINT('',(-167.,129.75,-1.99999999999999));
#623=CARTESIAN_POINT('',(-167.,129.75,-1.99999999999999));
#624=CARTESIAN_POINT('',(-163.,129.75,-1.99999999999999));
#625=CARTESIAN_POINT('Origin',(-163.,129.75,1.));
#626=CARTESIAN_POINT('Origin',(-167.,129.75,1.));
#627=CARTESIAN_POINT('Origin',(-167.,0.,29.));
#628=UNCERTAINTY_MEASURE_WITH_UNIT(LENGTH_MEASURE(0.01),#632,
'DISTANCE_ACCURACY_VALUE',
'Maximum model space distance between geometric entities at asserted c
onnectivities');
#629=UNCERTAINTY_MEASURE_WITH_UNIT(LENGTH_MEASURE(0.01),#632,
'DISTANCE_ACCURACY_VALUE',
'Maximum model space distance between geometric entities at asserted c
onnectivities');
#630=(
GEOMETRIC_REPRESENTATION_CONTEXT(3)
GLOBAL_UNCERTAINTY_ASSIGNED_CONTEXT((#628))
GLOBAL_UNIT_ASSIGNED_CONTEXT((#632,#633,#634))
REPRESENTATION_CONTEXT('','3D')
);
#631=(
GEOMETRIC_REPRESENTATION_CONTEXT(3)
GLOBAL_UNCERTAINTY_ASSIGNED_CONTEXT((#629))
GLOBAL_UNIT_ASSIGNED_CONTEXT((#632,#633,#634))
REPRESENTATION_CONTEXT('','3D')
);
#632=(
LENGTH_UNIT()
NAMED_UNIT(*)
SI_UNIT(.MILLI.,.METRE.)
);
#633=(
NAMED_UNIT(*)
PLANE_ANGLE_UNIT()
SI_UNIT($,.RADIAN.)
);
#634=(
NAMED_UNIT(*)
SI_UNIT($,.STERADIAN.)
SOLID_ANGLE_UNIT()
);
#635=SHAPE_DEFINITION_REPRESENTATION(#636,#637);
#636=PRODUCT_DEFINITION_SHAPE('',$,#639);
#637=SHAPE_REPRESENTATION('',(#369),#630);
#638=PRODUCT_DEFINITION_CONTEXT('part definition',#643,'design');
#639=PRODUCT_DEFINITION('U','U v14',#640,#638);
#640=PRODUCT_DEFINITION_FORMATION('',$,#645);
#641=PRODUCT_RELATED_PRODUCT_CATEGORY('U v14','U v14',(#645));
#642=APPLICATION_PROTOCOL_DEFINITION('international standard',
'automotive_design',2009,#643);
#643=APPLICATION_CONTEXT(
'Core Data for Automotive Mechanical Design Process');
#644=PRODUCT_CONTEXT('part definition',#643,'mechanical');
#645=PRODUCT('U','U v14',$,(#644));
#646=PRESENTATION_STYLE_ASSIGNMENT((#647));
#647=SURFACE_STYLE_USAGE(.BOTH.,#648);
#648=SURFACE_SIDE_STYLE('',(#649));
#649=SURFACE_STYLE_FILL_AREA(#650);
#650=FILL_AREA_STYLE('Acier - Satin\X\E9',(#651));
#651=FILL_AREA_STYLE_COLOUR('Acier - Satin\X\E9',#652);
#652=COLOUR_RGB('Acier - Satin\X\E9',0.627450980392157,0.627450980392157,
0.627450980392157);
ENDSEC;
END-ISO-10303-21;
