ISO-10303-21;
HEADER;
FILE_DESCRIPTION (( 'STEP AP203' ),
    '1' );
FILE_NAME ('rod_large.STEP',
    '2022-11-19T17:38:59',
    ( '' ),
    ( '' ),
    'SwSTEP 2.0',
    'SolidWorks 2021',
    '' );
FILE_SCHEMA (( 'CONFIG_CONTROL_DESIGN' ));
ENDSEC;

DATA;
#1 = PLANE ( 'NONE',  #77 ) ;
#2 = DIRECTION ( 'NONE',  ( -1.000000000000000000, -0.000000000000000000, -0.000000000000000000 ) ) ;
#3 = CARTESIAN_POINT ( 'NONE',  ( 180.0000000000000000, 0.000000000000000000, 0.000000000000000000 ) ) ;
#4 = EDGE_LOOP ( 'NONE', ( #35, #169 ) ) ;
#5 = VERTEX_POINT ( 'NONE', #68 ) ;
#6 = APPLICATION_CONTEXT ( 'configuration controlled 3d designs of mechanical parts and assemblies' ) ;
#7 = CC_DESIGN_PERSON_AND_ORGANIZATION_ASSIGNMENT ( #251, #98, ( #333 ) ) ;
#8 = EDGE_LOOP ( 'NONE', ( #269, #266, #57, #138 ) ) ;
#9 = APPLICATION_PROTOCOL_DEFINITION ( 'international standard', 'config_control_design', 1994, #273 ) ;
#10 = ORIENTED_EDGE ( 'NONE', *, *, #125, .F. ) ;
#11 = EDGE_CURVE ( 'NONE', #5, #143, #93, .T. ) ;
#12 = AXIS2_PLACEMENT_3D ( 'NONE', #41, #274, #19 ) ;
#13 = LOCAL_TIME ( 9, 38, 59.00000000000000000, #183 ) ;
#14 = CC_DESIGN_PERSON_AND_ORGANIZATION_ASSIGNMENT ( #294, #318, ( #272 ) ) ;
#15 = PLANE ( 'NONE',  #201 ) ;
#16 = CARTESIAN_POINT ( 'NONE',  ( 0.000000000000000000, 0.000000000000000000, 0.000000000000000000 ) ) ;
#17 = APPROVAL_STATUS ( 'not_yet_approved' ) ;
#18 = APPROVAL_DATE_TIME ( #69, #194 ) ;
#19 = DIRECTION ( 'NONE',  ( 0.000000000000000000, 0.000000000000000000, 1.000000000000000000 ) ) ;
#20 = ADVANCED_FACE ( 'NONE', ( #299 ), #199, .T. ) ;
#21 = CIRCLE ( 'NONE', #235, 3.500000000000000000 ) ;
#22 = CYLINDRICAL_SURFACE ( 'NONE', #229, 3.500000000000000000 ) ;
#23 = APPROVAL_STATUS ( 'not_yet_approved' ) ;
#24 = CARTESIAN_POINT ( 'NONE',  ( 2.000000000000001776, 8.266365894244635319E-16, -6.750000000000000888 ) ) ;
#25 = CARTESIAN_POINT ( 'NONE',  ( 0.000000000000000000, 0.000000000000000000, 0.000000000000000000 ) ) ;
#26 = CIRCLE ( 'NONE', #209, 6.750000000000000000 ) ;
#27 = CARTESIAN_POINT ( 'NONE',  ( 180.0000000000000000, 0.000000000000000000, 3.500000000000000000 ) ) ;
#28 = MANIFOLD_SOLID_BREP ( 'Revolve1', #240 ) ;
#29 = FACE_OUTER_BOUND ( 'NONE', #221, .T. ) ;
#30 = EDGE_CURVE ( 'NONE', #244, #143, #99, .T. ) ;
#31 = COORDINATED_UNIVERSAL_TIME_OFFSET ( 8, 0, .BEHIND. ) ;
#32 = CIRCLE ( 'NONE', #66, 3.500000000000000000 ) ;
#33 = EDGE_LOOP ( 'NONE', ( #193, #188, #10, #304 ) ) ;
#34 =( NAMED_UNIT ( * ) SI_UNIT ( $, .STERADIAN. ) SOLID_ANGLE_UNIT ( ) );
#35 = ORIENTED_EDGE ( 'NONE', *, *, #326, .F. ) ;
#36 = ORIENTED_EDGE ( 'NONE', *, *, #73, .T. ) ;
#37 = FACE_OUTER_BOUND ( 'NONE', #148, .T. ) ;
#38 = VERTEX_POINT ( 'NONE', #65 ) ;
#39 = AXIS2_PLACEMENT_3D ( 'NONE', #25, #133, #307 ) ;
#40 = PRODUCT_DEFINITION_SHAPE ( 'NONE', 'NONE',  #172 ) ;
#41 = CARTESIAN_POINT ( 'NONE',  ( -10.00000000000000178, 0.000000000000000000, 0.000000000000000000 ) ) ;
#42 = CARTESIAN_POINT ( 'NONE',  ( 0.000000000000000000, 0.000000000000000000, 0.000000000000000000 ) ) ;
#43 = CC_DESIGN_DATE_AND_TIME_ASSIGNMENT ( #187, #265, ( #172 ) ) ;
#44 = CARTESIAN_POINT ( 'NONE',  ( 180.0000000000000000, 4.286263797015736595E-16, -3.500000000000000000 ) ) ;
#45 = CIRCLE ( 'NONE', #59, 3.500000000000000000 ) ;
#46 = DIRECTION ( 'NONE',  ( -1.000000000000000000, -0.000000000000000000, -0.000000000000000000 ) ) ;
#47 = ADVANCED_FACE ( 'NONE', ( #173, #275 ), #174, .F. ) ;
#48 = DIRECTION ( 'NONE',  ( 0.000000000000000000, 0.000000000000000000, 1.000000000000000000 ) ) ;
#49 = SHAPE_DEFINITION_REPRESENTATION ( #40, #228 ) ;
#50 = CC_DESIGN_APPROVAL ( #194, ( #333 ) ) ;
#51 = CARTESIAN_POINT ( 'NONE',  ( 0.000000000000000000, 0.000000000000000000, 0.000000000000000000 ) ) ;
#52 = PERSON_AND_ORGANIZATION_ROLE ( 'design_supplier' ) ;
#53 = CARTESIAN_POINT ( 'NONE',  ( 2.000000000000001776, 0.000000000000000000, 6.750000000000000000 ) ) ;
#54 = DIRECTION ( 'NONE',  ( 0.000000000000000000, 0.000000000000000000, -1.000000000000000000 ) ) ;
#55 = CARTESIAN_POINT ( 'NONE',  ( 0.000000000000000000, 0.000000000000000000, 0.000000000000000000 ) ) ;
#56 = ORIENTED_EDGE ( 'NONE', *, *, #328, .F. ) ;
#57 = ORIENTED_EDGE ( 'NONE', *, *, #73, .F. ) ;
#58 = CARTESIAN_POINT ( 'NONE',  ( 0.000000000000000000, 0.000000000000000000, 0.000000000000000000 ) ) ;
#59 = AXIS2_PLACEMENT_3D ( 'NONE', #3, #2, #184 ) ;
#60 = ORIENTED_EDGE ( 'NONE', *, *, #165, .F. ) ;
#61 = CYLINDRICAL_SURFACE ( 'NONE', #72, 3.500000000000000000 ) ;
#62 = ORIENTED_EDGE ( 'NONE', *, *, #204, .F. ) ;
#63 = APPROVAL ( #216, 'UNSPECIFIED' ) ;
#64 = ORIENTED_EDGE ( 'NONE', *, *, #281, .F. ) ;
#65 = CARTESIAN_POINT ( 'NONE',  ( 0.000000000000000000, 0.000000000000000000, 3.500000000000000000 ) ) ;
#66 = AXIS2_PLACEMENT_3D ( 'NONE', #198, #301, #271 ) ;
#67 = CARTESIAN_POINT ( 'NONE',  ( 2.000000000000001776, 0.000000000000000000, 0.000000000000000000 ) ) ;
#68 = CARTESIAN_POINT ( 'NONE',  ( 2.000000000000001776, 4.286263797015736595E-16, -3.500000000000000000 ) ) ;
#69 = DATE_AND_TIME ( #276, #78 ) ;
#70 = DIRECTION ( 'NONE',  ( -0.000000000000000000, 0.000000000000000000, 1.000000000000000000 ) ) ;
#71 = CIRCLE ( 'NONE', #249, 3.500000000000000000 ) ;
#72 = AXIS2_PLACEMENT_3D ( 'NONE', #58, #186, #142 ) ;
#73 = EDGE_CURVE ( 'NONE', #319, #322, #134, .T. ) ;
#74 = SECURITY_CLASSIFICATION_LEVEL ( 'unclassified' ) ;
#75 = DIRECTION ( 'NONE',  ( 1.000000000000000000, 0.000000000000000000, 0.000000000000000000 ) ) ;
#76 = PLANE ( 'NONE',  #309 ) ;
#77 = AXIS2_PLACEMENT_3D ( 'NONE', #211, #234, #54 ) ;
#78 = LOCAL_TIME ( 9, 38, 59.00000000000000000, #303 ) ;
#79 = APPROVAL_ROLE ( '' ) ;
#80 = FACE_OUTER_BOUND ( 'NONE', #239, .T. ) ;
#81 = DIRECTION ( 'NONE',  ( -1.000000000000000000, -0.000000000000000000, -0.000000000000000000 ) ) ;
#82 = DIRECTION ( 'NONE',  ( 0.000000000000000000, 0.000000000000000000, 1.000000000000000000 ) ) ;
#83 = EDGE_CURVE ( 'NONE', #38, #319, #150, .T. ) ;
#84 = VECTOR ( 'NONE', #315, 1000.000000000000000 ) ;
#85 = CALENDAR_DATE ( 2022, 19, 11 ) ;
#86 = EDGE_LOOP ( 'NONE', ( #297, #112 ) ) ;
#87 = VERTEX_POINT ( 'NONE', #44 ) ;
#88 = CARTESIAN_POINT ( 'NONE',  ( 180.0000000000000000, 0.000000000000000000, 0.000000000000000000 ) ) ;
#89 = VECTOR ( 'NONE', #287, 1000.000000000000000 ) ;
#90 = ORIENTED_EDGE ( 'NONE', *, *, #335, .F. ) ;
#91 = PERSON_AND_ORGANIZATION ( #323, #181 ) ;
#92 = EDGE_CURVE ( 'NONE', #87, #5, #227, .T. ) ;
#93 = CIRCLE ( 'NONE', #305, 3.500000000000000000 ) ;
#94 = DIRECTION ( 'NONE',  ( 0.000000000000000000, 0.000000000000000000, 1.000000000000000000 ) ) ;
#95 = AXIS2_PLACEMENT_3D ( 'NONE', #146, #115, #241 ) ;
#96 = VERTEX_POINT ( 'NONE', #200 ) ;
#97 = EDGE_CURVE ( 'NONE', #327, #116, #330, .T. ) ;
#98 = PERSON_AND_ORGANIZATION_ROLE ( 'creator' ) ;
#99 = LINE ( 'NONE', #252, #107 ) ;
#100 = AXIS2_PLACEMENT_3D ( 'NONE', #16, #81, #48 ) ;
#101 = PERSON_AND_ORGANIZATION_ROLE ( 'classification_officer' ) ;
#102 = LINE ( 'NONE', #278, #292 ) ;
#103 = DIRECTION ( 'NONE',  ( -1.000000000000000000, -0.000000000000000000, -0.000000000000000000 ) ) ;
#104 = DATE_TIME_ROLE ( 'classification_date' ) ;
#105 = ADVANCED_FACE ( 'NONE', ( #306 ), #15, .F. ) ;
#106 = FACE_BOUND ( 'NONE', #4, .T. ) ;
#107 = VECTOR ( 'NONE', #250, 1000.000000000000000 ) ;
#108 = FACE_OUTER_BOUND ( 'NONE', #129, .T. ) ;
#109 = DIRECTION ( 'NONE',  ( -1.000000000000000000, -0.000000000000000000, -0.000000000000000000 ) ) ;
#110 = EDGE_CURVE ( 'NONE', #325, #210, #26, .T. ) ;
#111 = PERSON_AND_ORGANIZATION_ROLE ( 'creator' ) ;
#112 = ORIENTED_EDGE ( 'NONE', *, *, #11, .T. ) ;
#113 = DIRECTION ( 'NONE',  ( -1.000000000000000000, -0.000000000000000000, -0.000000000000000000 ) ) ;
#114 = ORIENTED_EDGE ( 'NONE', *, *, #97, .T. ) ;
#115 = DIRECTION ( 'NONE',  ( 0.000000000000000000, 0.000000000000000000, 1.000000000000000000 ) ) ;
#116 = VERTEX_POINT ( 'NONE', #254 ) ;
#117 = APPROVAL_ROLE ( '' ) ;
#118 = CC_DESIGN_APPROVAL ( #175, ( #310 ) ) ;
#119 = ORIENTED_EDGE ( 'NONE', *, *, #83, .T. ) ;
#120 = ORIENTED_EDGE ( 'NONE', *, *, #204, .T. ) ;
#121 = DIRECTION ( 'NONE',  ( -1.000000000000000000, -0.000000000000000000, -0.000000000000000000 ) ) ;
#122 = CIRCLE ( 'NONE', #39, 6.749999999999999112 ) ;
#123 = CARTESIAN_POINT ( 'NONE',  ( 2.000000000000001776, 0.000000000000000000, 0.000000000000000000 ) ) ;
#124 = APPROVAL_ROLE ( '' ) ;
#125 = EDGE_CURVE ( 'NONE', #143, #5, #32, .T. ) ;
#126 = DIRECTION ( 'NONE',  ( 0.000000000000000000, 0.000000000000000000, 1.000000000000000000 ) ) ;
#127 = CARTESIAN_POINT ( 'NONE',  ( 2.000000000000001776, 6.750000000000000000, 0.000000000000000000 ) ) ;
#128 = DATE_AND_TIME ( #259, #245 ) ;
#129 = EDGE_LOOP ( 'NONE', ( #145, #291, #223, #295 ) ) ;
#130 = CYLINDRICAL_SURFACE ( 'NONE', #185, 6.749999999999999112 ) ;
#131 = DIRECTION ( 'NONE',  ( 0.000000000000000000, 0.000000000000000000, 1.000000000000000000 ) ) ;
#132 = ORIENTED_EDGE ( 'NONE', *, *, #314, .T. ) ;
#133 = DIRECTION ( 'NONE',  ( -1.000000000000000000, -0.000000000000000000, -0.000000000000000000 ) ) ;
#134 = CIRCLE ( 'NONE', #12, 3.500000000000000000 ) ;
#135 = DIRECTION ( 'NONE',  ( -1.000000000000000000, -0.000000000000000000, -0.000000000000000000 ) ) ;
#136 = ADVANCED_FACE ( 'NONE', ( #151 ), #248, .T. ) ;
#137 = CC_DESIGN_DATE_AND_TIME_ASSIGNMENT ( #158, #104, ( #310 ) ) ;
#138 = ORIENTED_EDGE ( 'NONE', *, *, #83, .F. ) ;
#139 = ADVANCED_FACE ( 'NONE', ( #232 ), #257, .T. ) ;
#140 = VECTOR ( 'NONE', #46, 1000.000000000000000 ) ;
#141 = APPROVAL_PERSON_ORGANIZATION ( #170, #63, #117 ) ;
#142 = DIRECTION ( 'NONE',  ( 0.000000000000000000, 0.000000000000000000, 1.000000000000000000 ) ) ;
#143 = VERTEX_POINT ( 'NONE', #258 ) ;
#144 = MECHANICAL_CONTEXT ( 'NONE', #273, 'mechanical' ) ;
#145 = ORIENTED_EDGE ( 'NONE', *, *, #92, .F. ) ;
#146 = CARTESIAN_POINT ( 'NONE',  ( 0.000000000000000000, 0.000000000000000000, 0.000000000000000000 ) ) ;
#147 = AXIS2_PLACEMENT_3D ( 'NONE', #51, #231, #237 ) ;
#148 = EDGE_LOOP ( 'NONE', ( #64, #162, #119, #167 ) ) ;
#149 = EDGE_CURVE ( 'NONE', #87, #244, #45, .T. ) ;
#150 = LINE ( 'NONE', #226, #140 ) ;
#151 = FACE_OUTER_BOUND ( 'NONE', #33, .T. ) ;
#152 = CIRCLE ( 'NONE', #191, 3.500000000000000000 ) ;
#153 = CARTESIAN_POINT ( 'NONE',  ( 0.000000000000000000, 0.000000000000000000, 0.000000000000000000 ) ) ;
#154 = CARTESIAN_POINT ( 'NONE',  ( 180.0000000000000000, 3.500000000000000000, 0.000000000000000000 ) ) ;
#155 = CARTESIAN_POINT ( 'NONE',  ( 2.000000000000001776, 0.000000000000000000, 0.000000000000000000 ) ) ;
#156 = ADVANCED_FACE ( 'NONE', ( #284 ), #130, .T. ) ;
#157 = DIRECTION ( 'NONE',  ( 0.000000000000000000, 0.000000000000000000, 1.000000000000000000 ) ) ;
#158 = DATE_AND_TIME ( #290, #13 ) ;
#159 = CARTESIAN_POINT ( 'NONE',  ( 0.000000000000000000, 0.000000000000000000, 0.000000000000000000 ) ) ;
#160 = DIRECTION ( 'NONE',  ( 0.000000000000000000, 0.000000000000000000, -1.000000000000000000 ) ) ;
#161 = CARTESIAN_POINT ( 'NONE',  ( 0.000000000000000000, 0.000000000000000000, 6.749999999999999112 ) ) ;
#162 = ORIENTED_EDGE ( 'NONE', *, *, #242, .T. ) ;
#163 =( LENGTH_UNIT ( ) NAMED_UNIT ( * ) SI_UNIT ( .MILLI., .METRE. ) );
#164 = EDGE_LOOP ( 'NONE', ( #236, #120, #190, #60 ) ) ;
#165 = EDGE_CURVE ( 'NONE', #116, #327, #122, .T. ) ;
#166 = CC_DESIGN_SECURITY_CLASSIFICATION ( #310, ( #333 ) ) ;
#167 = ORIENTED_EDGE ( 'NONE', *, *, #314, .F. ) ;
#168 = DESIGN_CONTEXT ( 'detailed design', #6, 'design' ) ;
#169 = ORIENTED_EDGE ( 'NONE', *, *, #242, .F. ) ;
#170 = PERSON_AND_ORGANIZATION ( #323, #181 ) ;
#171 = AXIS2_PLACEMENT_3D ( 'NONE', #127, #334, #70 ) ;
#172 = PRODUCT_DEFINITION ( 'UNKNOWN', '', #333, #168 ) ;
#173 = FACE_OUTER_BOUND ( 'NONE', #267, .T. ) ;
#174 = PLANE ( 'NONE',  #171 ) ;
#175 = APPROVAL ( #23, 'UNSPECIFIED' ) ;
#176 = VECTOR ( 'NONE', #277, 1000.000000000000000 ) ;
#177 =( GEOMETRIC_REPRESENTATION_CONTEXT ( 3 ) GLOBAL_UNCERTAINTY_ASSIGNED_CONTEXT ( ( #298 ) ) GLOBAL_UNIT_ASSIGNED_CONTEXT ( ( #163, #189, #34 ) ) REPRESENTATION_CONTEXT ( 'NONE', 'WORKASPACE' ) );
#178 = DIRECTION ( 'NONE',  ( 0.000000000000000000, 0.000000000000000000, 1.000000000000000000 ) ) ;
#179 = DIRECTION ( 'NONE',  ( -1.000000000000000000, -0.000000000000000000, -0.000000000000000000 ) ) ;
#180 = AXIS2_PLACEMENT_3D ( 'NONE', #153, #270, #202 ) ;
#181 = ORGANIZATION ( 'UNSPECIFIED', 'UNSPECIFIED', '' ) ;
#182 = CARTESIAN_POINT ( 'NONE',  ( 0.000000000000000000, 4.286263797015736595E-16, -3.500000000000000000 ) ) ;
#183 = COORDINATED_UNIVERSAL_TIME_OFFSET ( 8, 0, .BEHIND. ) ;
#184 = DIRECTION ( 'NONE',  ( 0.000000000000000000, 0.000000000000000000, 1.000000000000000000 ) ) ;
#185 = AXIS2_PLACEMENT_3D ( 'NONE', #311, #238, #157 ) ;
#186 = DIRECTION ( 'NONE',  ( -1.000000000000000000, -0.000000000000000000, -0.000000000000000000 ) ) ;
#187 = DATE_AND_TIME ( #85, #196 ) ;
#188 = ORIENTED_EDGE ( 'NONE', *, *, #92, .T. ) ;
#189 =( NAMED_UNIT ( * ) PLANE_ANGLE_UNIT ( ) SI_UNIT ( $, .RADIAN. ) );
#190 = ORIENTED_EDGE ( 'NONE', *, *, #335, .T. ) ;
#191 = AXIS2_PLACEMENT_3D ( 'NONE', #205, #179, #282 ) ;
#192 = ADVANCED_FACE ( 'NONE', ( #106, #80 ), #76, .F. ) ;
#193 = ORIENTED_EDGE ( 'NONE', *, *, #328, .T. ) ;
#194 = APPROVAL ( #17, 'UNSPECIFIED' ) ;
#195 = CARTESIAN_POINT ( 'NONE',  ( 0.000000000000000000, 4.286263797015736595E-16, -3.500000000000000000 ) ) ;
#196 = LOCAL_TIME ( 9, 38, 59.00000000000000000, #31 ) ;
#197 = ADVANCED_FACE ( 'NONE', ( #29 ), #1, .F. ) ;
#198 = CARTESIAN_POINT ( 'NONE',  ( 2.000000000000001776, 0.000000000000000000, 0.000000000000000000 ) ) ;
#199 = CYLINDRICAL_SURFACE ( 'NONE', #279, 3.500000000000000000 ) ;
#200 = CARTESIAN_POINT ( 'NONE',  ( 0.000000000000000000, 4.286263797015736595E-16, -3.500000000000000000 ) ) ;
#201 = AXIS2_PLACEMENT_3D ( 'NONE', #154, #247, #329 ) ;
#202 = DIRECTION ( 'NONE',  ( 0.000000000000000000, 0.000000000000000000, 1.000000000000000000 ) ) ;
#203 = APPROVAL_PERSON_ORGANIZATION ( #207, #175, #79 ) ;
#204 = EDGE_CURVE ( 'NONE', #210, #325, #218, .T. ) ;
#205 = CARTESIAN_POINT ( 'NONE',  ( -10.00000000000000178, 0.000000000000000000, 0.000000000000000000 ) ) ;
#206 = CARTESIAN_POINT ( 'NONE',  ( -10.00000000000000178, 0.000000000000000000, 3.500000000000000000 ) ) ;
#207 = PERSON_AND_ORGANIZATION ( #323, #181 ) ;
#208 = LINE ( 'NONE', #182, #84 ) ;
#209 = AXIS2_PLACEMENT_3D ( 'NONE', #67, #224, #94 ) ;
#210 = VERTEX_POINT ( 'NONE', #24 ) ;
#211 = CARTESIAN_POINT ( 'NONE',  ( -10.00000000000000178, 0.000000000000000000, 0.000000000000000000 ) ) ;
#212 = DIRECTION ( 'NONE',  ( 0.000000000000000000, 0.000000000000000000, 1.000000000000000000 ) ) ;
#213 = APPLICATION_PROTOCOL_DEFINITION ( 'international standard', 'config_control_design', 1994, #6 ) ;
#214 = DIRECTION ( 'NONE',  ( 0.000000000000000000, 0.000000000000000000, 1.000000000000000000 ) ) ;
#215 = ORIENTED_EDGE ( 'NONE', *, *, #110, .F. ) ;
#216 = APPROVAL_STATUS ( 'not_yet_approved' ) ;
#217 = EDGE_LOOP ( 'NONE', ( #56, #246 ) ) ;
#218 = CIRCLE ( 'NONE', #256, 6.750000000000000000 ) ;
#219 = LOCAL_TIME ( 9, 38, 59.00000000000000000, #268 ) ;
#220 = CALENDAR_DATE ( 2022, 19, 11 ) ;
#221 = EDGE_LOOP ( 'NONE', ( #36, #132 ) ) ;
#222 = CC_DESIGN_PERSON_AND_ORGANIZATION_ASSIGNMENT ( #91, #52, ( #333 ) ) ;
#223 = ORIENTED_EDGE ( 'NONE', *, *, #30, .T. ) ;
#224 = DIRECTION ( 'NONE',  ( -1.000000000000000000, -0.000000000000000000, -0.000000000000000000 ) ) ;
#225 = ADVANCED_FACE ( 'NONE', ( #108 ), #22, .T. ) ;
#226 = CARTESIAN_POINT ( 'NONE',  ( 0.000000000000000000, 0.000000000000000000, 3.500000000000000000 ) ) ;
#227 = LINE ( 'NONE', #195, #176 ) ;
#228 = ADVANCED_BREP_SHAPE_REPRESENTATION ( 'rod_large', ( #28, #95 ), #177 ) ;
#229 = AXIS2_PLACEMENT_3D ( 'NONE', #313, #283, #178 ) ;
#230 = DIRECTION ( 'NONE',  ( -1.000000000000000000, -0.000000000000000000, -0.000000000000000000 ) ) ;
#231 = DIRECTION ( 'NONE',  ( -1.000000000000000000, -0.000000000000000000, -0.000000000000000000 ) ) ;
#232 = FACE_OUTER_BOUND ( 'NONE', #164, .T. ) ;
#233 = ORIENTED_EDGE ( 'NONE', *, *, #97, .F. ) ;
#234 = DIRECTION ( 'NONE',  ( 1.000000000000000000, 0.000000000000000000, 0.000000000000000000 ) ) ;
#235 = AXIS2_PLACEMENT_3D ( 'NONE', #88, #113, #214 ) ;
#236 = ORIENTED_EDGE ( 'NONE', *, *, #289, .F. ) ;
#237 = DIRECTION ( 'NONE',  ( 0.000000000000000000, 0.000000000000000000, 1.000000000000000000 ) ) ;
#238 = DIRECTION ( 'NONE',  ( -1.000000000000000000, -0.000000000000000000, -0.000000000000000000 ) ) ;
#239 = EDGE_LOOP ( 'NONE', ( #114, #288 ) ) ;
#240 = CLOSED_SHELL ( 'NONE', ( #136, #156, #20, #197, #332, #192, #139, #47, #225, #105 ) ) ;
#241 = DIRECTION ( 'NONE',  ( 1.000000000000000000, 0.000000000000000000, 0.000000000000000000 ) ) ;
#242 = EDGE_CURVE ( 'NONE', #96, #38, #71, .T. ) ;
#243 = EDGE_LOOP ( 'NONE', ( #320, #286, #233, #90 ) ) ;
#244 = VERTEX_POINT ( 'NONE', #27 ) ;
#245 = LOCAL_TIME ( 9, 38, 59.00000000000000000, #255 ) ;
#246 = ORIENTED_EDGE ( 'NONE', *, *, #149, .F. ) ;
#247 = DIRECTION ( 'NONE',  ( -1.000000000000000000, 0.000000000000000000, -0.000000000000000000 ) ) ;
#248 = CYLINDRICAL_SURFACE ( 'NONE', #100, 3.500000000000000000 ) ;
#249 = AXIS2_PLACEMENT_3D ( 'NONE', #55, #260, #212 ) ;
#250 = DIRECTION ( 'NONE',  ( -1.000000000000000000, -0.000000000000000000, -0.000000000000000000 ) ) ;
#251 = PERSON_AND_ORGANIZATION ( #323, #181 ) ;
#252 = CARTESIAN_POINT ( 'NONE',  ( 0.000000000000000000, 0.000000000000000000, 3.500000000000000000 ) ) ;
#253 = APPROVAL_DATE_TIME ( #128, #175 ) ;
#254 = CARTESIAN_POINT ( 'NONE',  ( 0.000000000000000000, 8.266365894244633347E-16, -6.749999999999999112 ) ) ;
#255 = COORDINATED_UNIVERSAL_TIME_OFFSET ( 8, 0, .BEHIND. ) ;
#256 = AXIS2_PLACEMENT_3D ( 'NONE', #155, #109, #131 ) ;
#257 = CYLINDRICAL_SURFACE ( 'NONE', #147, 6.749999999999999112 ) ;
#258 = CARTESIAN_POINT ( 'NONE',  ( 2.000000000000001776, 0.000000000000000000, 3.500000000000000000 ) ) ;
#259 = CALENDAR_DATE ( 2022, 19, 11 ) ;
#260 = DIRECTION ( 'NONE',  ( -1.000000000000000000, -0.000000000000000000, -0.000000000000000000 ) ) ;
#261 = CIRCLE ( 'NONE', #317, 3.500000000000000000 ) ;
#262 = CC_DESIGN_APPROVAL ( #63, ( #172 ) ) ;
#263 = CARTESIAN_POINT ( 'NONE',  ( 0.000000000000000000, 3.500000000000000000, 0.000000000000000000 ) ) ;
#264 = CARTESIAN_POINT ( 'NONE',  ( 0.000000000000000000, 0.000000000000000000, 6.749999999999999112 ) ) ;
#265 = DATE_TIME_ROLE ( 'creation_date' ) ;
#266 = ORIENTED_EDGE ( 'NONE', *, *, #281, .T. ) ;
#267 = EDGE_LOOP ( 'NONE', ( #215, #62 ) ) ;
#268 = COORDINATED_UNIVERSAL_TIME_OFFSET ( 8, 0, .BEHIND. ) ;
#269 = ORIENTED_EDGE ( 'NONE', *, *, #326, .T. ) ;
#270 = DIRECTION ( 'NONE',  ( -1.000000000000000000, -0.000000000000000000, -0.000000000000000000 ) ) ;
#271 = DIRECTION ( 'NONE',  ( 0.000000000000000000, 0.000000000000000000, 1.000000000000000000 ) ) ;
#272 = PRODUCT ( 'rod_large', 'rod_large', '', ( #144 ) ) ;
#273 = APPLICATION_CONTEXT ( 'configuration controlled 3d designs of mechanical parts and assemblies' ) ;
#274 = DIRECTION ( 'NONE',  ( -1.000000000000000000, -0.000000000000000000, -0.000000000000000000 ) ) ;
#275 = FACE_BOUND ( 'NONE', #86, .T. ) ;
#276 = CALENDAR_DATE ( 2022, 19, 11 ) ;
#277 = DIRECTION ( 'NONE',  ( -1.000000000000000000, -0.000000000000000000, -0.000000000000000000 ) ) ;
#278 = CARTESIAN_POINT ( 'NONE',  ( 0.000000000000000000, 8.266365894244633347E-16, -6.749999999999999112 ) ) ;
#279 = AXIS2_PLACEMENT_3D ( 'NONE', #42, #121, #126 ) ;
#280 = CARTESIAN_POINT ( 'NONE',  ( -10.00000000000000178, 4.286263797015736595E-16, -3.500000000000000000 ) ) ;
#281 = EDGE_CURVE ( 'NONE', #96, #322, #208, .T. ) ;
#282 = DIRECTION ( 'NONE',  ( 0.000000000000000000, 0.000000000000000000, 1.000000000000000000 ) ) ;
#283 = DIRECTION ( 'NONE',  ( -1.000000000000000000, -0.000000000000000000, -0.000000000000000000 ) ) ;
#284 = FACE_OUTER_BOUND ( 'NONE', #243, .T. ) ;
#285 = APPROVAL_PERSON_ORGANIZATION ( #331, #194, #124 ) ;
#286 = ORIENTED_EDGE ( 'NONE', *, *, #289, .T. ) ;
#287 = DIRECTION ( 'NONE',  ( -1.000000000000000000, -0.000000000000000000, -0.000000000000000000 ) ) ;
#288 = ORIENTED_EDGE ( 'NONE', *, *, #165, .T. ) ;
#289 = EDGE_CURVE ( 'NONE', #210, #116, #102, .T. ) ;
#290 = CALENDAR_DATE ( 2022, 19, 11 ) ;
#291 = ORIENTED_EDGE ( 'NONE', *, *, #149, .T. ) ;
#292 = VECTOR ( 'NONE', #103, 1000.000000000000000 ) ;
#293 = CC_DESIGN_PERSON_AND_ORGANIZATION_ASSIGNMENT ( #321, #111, ( #172 ) ) ;
#294 = PERSON_AND_ORGANIZATION ( #323, #181 ) ;
#295 = ORIENTED_EDGE ( 'NONE', *, *, #11, .F. ) ;
#296 = LINE ( 'NONE', #264, #89 ) ;
#297 = ORIENTED_EDGE ( 'NONE', *, *, #125, .T. ) ;
#298 = UNCERTAINTY_MEASURE_WITH_UNIT (LENGTH_MEASURE( 1.000000000000000082E-05 ), #163, 'distance_accuracy_value', 'NONE');
#299 = FACE_OUTER_BOUND ( 'NONE', #8, .T. ) ;
#300 = PRODUCT_RELATED_PRODUCT_CATEGORY ( 'detail', '', ( #272 ) ) ;
#301 = DIRECTION ( 'NONE',  ( -1.000000000000000000, -0.000000000000000000, -0.000000000000000000 ) ) ;
#302 = DIRECTION ( 'NONE',  ( 0.000000000000000000, 0.000000000000000000, 1.000000000000000000 ) ) ;
#303 = COORDINATED_UNIVERSAL_TIME_OFFSET ( 8, 0, .BEHIND. ) ;
#304 = ORIENTED_EDGE ( 'NONE', *, *, #30, .F. ) ;
#305 = AXIS2_PLACEMENT_3D ( 'NONE', #123, #230, #302 ) ;
#306 = FACE_OUTER_BOUND ( 'NONE', #217, .T. ) ;
#307 = DIRECTION ( 'NONE',  ( 0.000000000000000000, 0.000000000000000000, 1.000000000000000000 ) ) ;
#308 = PERSON_AND_ORGANIZATION ( #323, #181 ) ;
#309 = AXIS2_PLACEMENT_3D ( 'NONE', #263, #75, #160 ) ;
#310 = SECURITY_CLASSIFICATION ( '', '', #74 ) ;
#311 = CARTESIAN_POINT ( 'NONE',  ( 0.000000000000000000, 0.000000000000000000, 0.000000000000000000 ) ) ;
#312 = CC_DESIGN_PERSON_AND_ORGANIZATION_ASSIGNMENT ( #308, #101, ( #310 ) ) ;
#313 = CARTESIAN_POINT ( 'NONE',  ( 0.000000000000000000, 0.000000000000000000, 0.000000000000000000 ) ) ;
#314 = EDGE_CURVE ( 'NONE', #322, #319, #152, .T. ) ;
#315 = DIRECTION ( 'NONE',  ( -1.000000000000000000, -0.000000000000000000, -0.000000000000000000 ) ) ;
#316 = DATE_AND_TIME ( #220, #219 ) ;
#317 = AXIS2_PLACEMENT_3D ( 'NONE', #159, #135, #82 ) ;
#318 = PERSON_AND_ORGANIZATION_ROLE ( 'design_owner' ) ;
#319 = VERTEX_POINT ( 'NONE', #206 ) ;
#320 = ORIENTED_EDGE ( 'NONE', *, *, #110, .T. ) ;
#321 = PERSON_AND_ORGANIZATION ( #323, #181 ) ;
#322 = VERTEX_POINT ( 'NONE', #280 ) ;
#323 = PERSON ( 'UNSPECIFIED', 'UNSPECIFIED', 'UNSPECIFIED', ('UNSPECIFIED'), ('UNSPECIFIED'), ('UNSPECIFIED') ) ;
#324 = APPROVAL_DATE_TIME ( #316, #63 ) ;
#325 = VERTEX_POINT ( 'NONE', #53 ) ;
#326 = EDGE_CURVE ( 'NONE', #38, #96, #261, .T. ) ;
#327 = VERTEX_POINT ( 'NONE', #161 ) ;
#328 = EDGE_CURVE ( 'NONE', #244, #87, #21, .T. ) ;
#329 = DIRECTION ( 'NONE',  ( -0.000000000000000000, 0.000000000000000000, 1.000000000000000000 ) ) ;
#330 = CIRCLE ( 'NONE', #180, 6.749999999999999112 ) ;
#331 = PERSON_AND_ORGANIZATION ( #323, #181 ) ;
#332 = ADVANCED_FACE ( 'NONE', ( #37 ), #61, .T. ) ;
#333 = PRODUCT_DEFINITION_FORMATION_WITH_SPECIFIED_SOURCE ( 'ANY', '', #272, .NOT_KNOWN. ) ;
#334 = DIRECTION ( 'NONE',  ( -1.000000000000000000, 0.000000000000000000, -0.000000000000000000 ) ) ;
#335 = EDGE_CURVE ( 'NONE', #325, #327, #296, .T. ) ;
ENDSEC;
END-ISO-10303-21;
