ISO-10303-21;
HEADER;
/* Generated by software containing ST-Developer
 * from STEP Tools, Inc. (www.steptools.com) 
 */

FILE_DESCRIPTION(
/* description */ (''),
/* implementation_level */ '2;1');

FILE_NAME(
/* name */ 
'C:\\VAULT_LOCAL\\WORKSPACE\\05_GSE\\MGSE\\GSE-052-MGSE-Torsional Thru
st Balance V2\\Measurement subsystem\\Position Sensor holder.stp',
/* time_stamp */ '2022-11-07T17:45:14+01:00',
/* author */ ('exolab-5mv6l'),
/* organization */ (''),
/* preprocessor_version */ 'ST-DEVELOPER v18.1',
/* originating_system */ 'Autodesk Inventor 2022',
/* authorisation */ '');

FILE_SCHEMA (('AUTOMOTIVE_DESIGN { 1 0 10303 214 3 1 1 }'));
ENDSEC;

DATA;
#10=MECHANICAL_DESIGN_GEOMETRIC_PRESENTATION_REPRESENTATION('',(#13),#472);
#11=SHAPE_REPRESENTATION_RELATIONSHIP('SRR','None',#479,#12);
#12=ADVANCED_BREP_SHAPE_REPRESENTATION('',(#14),#471);
#13=STYLED_ITEM('',(#488),#14);
#14=MANIFOLD_SOLID_BREP('Solide1',#275);
#15=FACE_BOUND('',#56,.T.);
#16=FACE_BOUND('',#57,.T.);
#17=FACE_BOUND('',#59,.T.);
#18=FACE_BOUND('',#60,.T.);
#19=PLANE('',#301);
#20=PLANE('',#305);
#21=PLANE('',#312);
#22=PLANE('',#313);
#23=PLANE('',#314);
#24=PLANE('',#315);
#25=PLANE('',#316);
#26=PLANE('',#317);
#27=PLANE('',#318);
#28=PLANE('',#319);
#29=FACE_OUTER_BOUND('',#43,.T.);
#30=FACE_OUTER_BOUND('',#44,.T.);
#31=FACE_OUTER_BOUND('',#45,.T.);
#32=FACE_OUTER_BOUND('',#46,.T.);
#33=FACE_OUTER_BOUND('',#47,.T.);
#34=FACE_OUTER_BOUND('',#48,.T.);
#35=FACE_OUTER_BOUND('',#49,.T.);
#36=FACE_OUTER_BOUND('',#50,.T.);
#37=FACE_OUTER_BOUND('',#51,.T.);
#38=FACE_OUTER_BOUND('',#52,.T.);
#39=FACE_OUTER_BOUND('',#53,.T.);
#40=FACE_OUTER_BOUND('',#54,.T.);
#41=FACE_OUTER_BOUND('',#55,.T.);
#42=FACE_OUTER_BOUND('',#58,.T.);
#43=EDGE_LOOP('',(#185,#186,#187,#188));
#44=EDGE_LOOP('',(#189,#190,#191,#192));
#45=EDGE_LOOP('',(#193,#194,#195,#196));
#46=EDGE_LOOP('',(#197,#198,#199,#200));
#47=EDGE_LOOP('',(#201,#202,#203,#204));
#48=EDGE_LOOP('',(#205,#206,#207,#208));
#49=EDGE_LOOP('',(#209,#210,#211,#212));
#50=EDGE_LOOP('',(#213,#214,#215,#216));
#51=EDGE_LOOP('',(#217,#218,#219,#220));
#52=EDGE_LOOP('',(#221,#222,#223,#224));
#53=EDGE_LOOP('',(#225,#226,#227,#228));
#54=EDGE_LOOP('',(#229,#230,#231,#232));
#55=EDGE_LOOP('',(#233,#234,#235,#236,#237,#238,#239,#240,#241,#242));
#56=EDGE_LOOP('',(#243));
#57=EDGE_LOOP('',(#244));
#58=EDGE_LOOP('',(#245,#246,#247,#248,#249,#250,#251,#252,#253,#254));
#59=EDGE_LOOP('',(#255));
#60=EDGE_LOOP('',(#256));
#61=LINE('',#400,#89);
#62=LINE('',#403,#90);
#63=LINE('',#406,#91);
#64=LINE('',#408,#92);
#65=LINE('',#409,#93);
#66=LINE('',#415,#94);
#67=LINE('',#418,#95);
#68=LINE('',#421,#96);
#69=LINE('',#423,#97);
#70=LINE('',#424,#98);
#71=LINE('',#429,#99);
#72=LINE('',#435,#100);
#73=LINE('',#440,#101);
#74=LINE('',#442,#102);
#75=LINE('',#444,#103);
#76=LINE('',#445,#104);
#77=LINE('',#447,#105);
#78=LINE('',#448,#106);
#79=LINE('',#451,#107);
#80=LINE('',#453,#108);
#81=LINE('',#454,#109);
#82=LINE('',#456,#110);
#83=LINE('',#457,#111);
#84=LINE('',#460,#112);
#85=LINE('',#462,#113);
#86=LINE('',#463,#114);
#87=LINE('',#465,#115);
#88=LINE('',#466,#116);
#89=VECTOR('',#326,10.);
#90=VECTOR('',#329,10.);
#91=VECTOR('',#332,10.);
#92=VECTOR('',#333,10.);
#93=VECTOR('',#334,10.);
#94=VECTOR('',#339,10.);
#95=VECTOR('',#342,10.);
#96=VECTOR('',#345,10.);
#97=VECTOR('',#346,10.);
#98=VECTOR('',#347,10.);
#99=VECTOR('',#352,3.2);
#100=VECTOR('',#359,9.2);
#101=VECTOR('',#364,10.);
#102=VECTOR('',#365,10.);
#103=VECTOR('',#366,10.);
#104=VECTOR('',#367,10.);
#105=VECTOR('',#370,10.);
#106=VECTOR('',#371,10.);
#107=VECTOR('',#374,10.);
#108=VECTOR('',#375,10.);
#109=VECTOR('',#376,10.);
#110=VECTOR('',#379,10.);
#111=VECTOR('',#380,10.);
#112=VECTOR('',#383,10.);
#113=VECTOR('',#384,10.);
#114=VECTOR('',#385,10.);
#115=VECTOR('',#388,10.);
#116=VECTOR('',#389,10.);
#117=CIRCLE('',#299,2.);
#118=CIRCLE('',#300,2.);
#119=CIRCLE('',#303,2.);
#120=CIRCLE('',#304,2.);
#121=CIRCLE('',#307,3.2);
#122=CIRCLE('',#308,3.2);
#123=CIRCLE('',#310,9.2);
#124=CIRCLE('',#311,9.2);
#125=VERTEX_POINT('',#396);
#126=VERTEX_POINT('',#397);
#127=VERTEX_POINT('',#399);
#128=VERTEX_POINT('',#401);
#129=VERTEX_POINT('',#405);
#130=VERTEX_POINT('',#407);
#131=VERTEX_POINT('',#411);
#132=VERTEX_POINT('',#412);
#133=VERTEX_POINT('',#414);
#134=VERTEX_POINT('',#416);
#135=VERTEX_POINT('',#420);
#136=VERTEX_POINT('',#422);
#137=VERTEX_POINT('',#426);
#138=VERTEX_POINT('',#428);
#139=VERTEX_POINT('',#432);
#140=VERTEX_POINT('',#434);
#141=VERTEX_POINT('',#438);
#142=VERTEX_POINT('',#439);
#143=VERTEX_POINT('',#441);
#144=VERTEX_POINT('',#443);
#145=VERTEX_POINT('',#450);
#146=VERTEX_POINT('',#452);
#147=VERTEX_POINT('',#459);
#148=VERTEX_POINT('',#461);
#149=EDGE_CURVE('',#125,#126,#117,.T.);
#150=EDGE_CURVE('',#126,#127,#61,.T.);
#151=EDGE_CURVE('',#127,#128,#118,.T.);
#152=EDGE_CURVE('',#128,#125,#62,.T.);
#153=EDGE_CURVE('',#126,#129,#63,.T.);
#154=EDGE_CURVE('',#129,#130,#64,.T.);
#155=EDGE_CURVE('',#127,#130,#65,.T.);
#156=EDGE_CURVE('',#131,#132,#119,.T.);
#157=EDGE_CURVE('',#132,#133,#66,.T.);
#158=EDGE_CURVE('',#133,#134,#120,.T.);
#159=EDGE_CURVE('',#134,#131,#67,.T.);
#160=EDGE_CURVE('',#132,#135,#68,.T.);
#161=EDGE_CURVE('',#135,#136,#69,.T.);
#162=EDGE_CURVE('',#133,#136,#70,.T.);
#163=EDGE_CURVE('',#137,#137,#121,.T.);
#164=EDGE_CURVE('',#137,#138,#71,.T.);
#165=EDGE_CURVE('',#138,#138,#122,.T.);
#166=EDGE_CURVE('',#139,#139,#123,.T.);
#167=EDGE_CURVE('',#139,#140,#72,.T.);
#168=EDGE_CURVE('',#140,#140,#124,.T.);
#169=EDGE_CURVE('',#141,#142,#73,.T.);
#170=EDGE_CURVE('',#142,#143,#74,.T.);
#171=EDGE_CURVE('',#144,#143,#75,.T.);
#172=EDGE_CURVE('',#141,#144,#76,.T.);
#173=EDGE_CURVE('',#135,#141,#77,.T.);
#174=EDGE_CURVE('',#136,#144,#78,.T.);
#175=EDGE_CURVE('',#145,#134,#79,.T.);
#176=EDGE_CURVE('',#146,#145,#80,.T.);
#177=EDGE_CURVE('',#146,#131,#81,.T.);
#178=EDGE_CURVE('',#129,#146,#82,.T.);
#179=EDGE_CURVE('',#130,#145,#83,.T.);
#180=EDGE_CURVE('',#147,#128,#84,.T.);
#181=EDGE_CURVE('',#148,#147,#85,.T.);
#182=EDGE_CURVE('',#148,#125,#86,.T.);
#183=EDGE_CURVE('',#142,#148,#87,.T.);
#184=EDGE_CURVE('',#143,#147,#88,.T.);
#185=ORIENTED_EDGE('',*,*,#149,.T.);
#186=ORIENTED_EDGE('',*,*,#150,.T.);
#187=ORIENTED_EDGE('',*,*,#151,.T.);
#188=ORIENTED_EDGE('',*,*,#152,.T.);
#189=ORIENTED_EDGE('',*,*,#150,.F.);
#190=ORIENTED_EDGE('',*,*,#153,.T.);
#191=ORIENTED_EDGE('',*,*,#154,.T.);
#192=ORIENTED_EDGE('',*,*,#155,.F.);
#193=ORIENTED_EDGE('',*,*,#156,.T.);
#194=ORIENTED_EDGE('',*,*,#157,.T.);
#195=ORIENTED_EDGE('',*,*,#158,.T.);
#196=ORIENTED_EDGE('',*,*,#159,.T.);
#197=ORIENTED_EDGE('',*,*,#157,.F.);
#198=ORIENTED_EDGE('',*,*,#160,.T.);
#199=ORIENTED_EDGE('',*,*,#161,.T.);
#200=ORIENTED_EDGE('',*,*,#162,.F.);
#201=ORIENTED_EDGE('',*,*,#163,.F.);
#202=ORIENTED_EDGE('',*,*,#164,.T.);
#203=ORIENTED_EDGE('',*,*,#165,.F.);
#204=ORIENTED_EDGE('',*,*,#164,.F.);
#205=ORIENTED_EDGE('',*,*,#166,.F.);
#206=ORIENTED_EDGE('',*,*,#167,.T.);
#207=ORIENTED_EDGE('',*,*,#168,.F.);
#208=ORIENTED_EDGE('',*,*,#167,.F.);
#209=ORIENTED_EDGE('',*,*,#169,.T.);
#210=ORIENTED_EDGE('',*,*,#170,.T.);
#211=ORIENTED_EDGE('',*,*,#171,.F.);
#212=ORIENTED_EDGE('',*,*,#172,.F.);
#213=ORIENTED_EDGE('',*,*,#173,.T.);
#214=ORIENTED_EDGE('',*,*,#172,.T.);
#215=ORIENTED_EDGE('',*,*,#174,.F.);
#216=ORIENTED_EDGE('',*,*,#161,.F.);
#217=ORIENTED_EDGE('',*,*,#159,.F.);
#218=ORIENTED_EDGE('',*,*,#175,.F.);
#219=ORIENTED_EDGE('',*,*,#176,.F.);
#220=ORIENTED_EDGE('',*,*,#177,.T.);
#221=ORIENTED_EDGE('',*,*,#178,.T.);
#222=ORIENTED_EDGE('',*,*,#176,.T.);
#223=ORIENTED_EDGE('',*,*,#179,.F.);
#224=ORIENTED_EDGE('',*,*,#154,.F.);
#225=ORIENTED_EDGE('',*,*,#152,.F.);
#226=ORIENTED_EDGE('',*,*,#180,.F.);
#227=ORIENTED_EDGE('',*,*,#181,.F.);
#228=ORIENTED_EDGE('',*,*,#182,.T.);
#229=ORIENTED_EDGE('',*,*,#183,.T.);
#230=ORIENTED_EDGE('',*,*,#181,.T.);
#231=ORIENTED_EDGE('',*,*,#184,.F.);
#232=ORIENTED_EDGE('',*,*,#170,.F.);
#233=ORIENTED_EDGE('',*,*,#184,.T.);
#234=ORIENTED_EDGE('',*,*,#180,.T.);
#235=ORIENTED_EDGE('',*,*,#151,.F.);
#236=ORIENTED_EDGE('',*,*,#155,.T.);
#237=ORIENTED_EDGE('',*,*,#179,.T.);
#238=ORIENTED_EDGE('',*,*,#175,.T.);
#239=ORIENTED_EDGE('',*,*,#158,.F.);
#240=ORIENTED_EDGE('',*,*,#162,.T.);
#241=ORIENTED_EDGE('',*,*,#174,.T.);
#242=ORIENTED_EDGE('',*,*,#171,.T.);
#243=ORIENTED_EDGE('',*,*,#163,.T.);
#244=ORIENTED_EDGE('',*,*,#166,.T.);
#245=ORIENTED_EDGE('',*,*,#183,.F.);
#246=ORIENTED_EDGE('',*,*,#169,.F.);
#247=ORIENTED_EDGE('',*,*,#173,.F.);
#248=ORIENTED_EDGE('',*,*,#160,.F.);
#249=ORIENTED_EDGE('',*,*,#156,.F.);
#250=ORIENTED_EDGE('',*,*,#177,.F.);
#251=ORIENTED_EDGE('',*,*,#178,.F.);
#252=ORIENTED_EDGE('',*,*,#153,.F.);
#253=ORIENTED_EDGE('',*,*,#149,.F.);
#254=ORIENTED_EDGE('',*,*,#182,.F.);
#255=ORIENTED_EDGE('',*,*,#165,.T.);
#256=ORIENTED_EDGE('',*,*,#168,.T.);
#257=CYLINDRICAL_SURFACE('',#298,2.);
#258=CYLINDRICAL_SURFACE('',#302,2.);
#259=CYLINDRICAL_SURFACE('',#306,3.2);
#260=CYLINDRICAL_SURFACE('',#309,9.2);
#261=ADVANCED_FACE('',(#29),#257,.F.);
#262=ADVANCED_FACE('',(#30),#19,.T.);
#263=ADVANCED_FACE('',(#31),#258,.F.);
#264=ADVANCED_FACE('',(#32),#20,.T.);
#265=ADVANCED_FACE('',(#33),#259,.F.);
#266=ADVANCED_FACE('',(#34),#260,.F.);
#267=ADVANCED_FACE('',(#35),#21,.T.);
#268=ADVANCED_FACE('',(#36),#22,.T.);
#269=ADVANCED_FACE('',(#37),#23,.T.);
#270=ADVANCED_FACE('',(#38),#24,.T.);
#271=ADVANCED_FACE('',(#39),#25,.T.);
#272=ADVANCED_FACE('',(#40),#26,.T.);
#273=ADVANCED_FACE('',(#41,#15,#16),#27,.T.);
#274=ADVANCED_FACE('',(#42,#17,#18),#28,.F.);
#275=CLOSED_SHELL('',(#261,#262,#263,#264,#265,#266,#267,#268,#269,#270,
#271,#272,#273,#274));
#276=DERIVED_UNIT_ELEMENT(#279,1.);
#277=DERIVED_UNIT_ELEMENT(#474,-3.);
#278=DIMENSIONAL_EXPONENTS(1.,0.,0.,0.,0.,0.,0.);
#279=(
CONVERSION_BASED_UNIT('gram',#281)
MASS_UNIT()
NAMED_UNIT(#278)
);
#280=(
MASS_UNIT()
NAMED_UNIT(*)
SI_UNIT(.KILO.,.GRAM.)
);
#281=MASS_MEASURE_WITH_UNIT(MASS_MEASURE(0.001),#280);
#282=DERIVED_UNIT((#276,#277));
#283=MEASURE_REPRESENTATION_ITEM('density measure',
POSITIVE_RATIO_MEASURE(2.7),#282);
#284=PROPERTY_DEFINITION_REPRESENTATION(#289,#286);
#285=PROPERTY_DEFINITION_REPRESENTATION(#290,#287);
#286=REPRESENTATION('material name',(#288),#471);
#287=REPRESENTATION('density',(#283),#471);
#288=DESCRIPTIVE_REPRESENTATION_ITEM('Aluminum 6061-T6',
'Aluminum 6061-T6');
#289=PROPERTY_DEFINITION('material property','material name',#481);
#290=PROPERTY_DEFINITION('material property','density of part',#481);
#291=DATE_TIME_ROLE('creation_date');
#292=APPLIED_DATE_AND_TIME_ASSIGNMENT(#293,#291,(#481));
#293=DATE_AND_TIME(#294,#295);
#294=CALENDAR_DATE(2022,4,11);
#295=LOCAL_TIME(0,0,0.,#296);
#296=COORDINATED_UNIVERSAL_TIME_OFFSET(0,0,.BEHIND.);
#297=AXIS2_PLACEMENT_3D('placement',#394,#320,#321);
#298=AXIS2_PLACEMENT_3D('',#395,#322,#323);
#299=AXIS2_PLACEMENT_3D('',#398,#324,#325);
#300=AXIS2_PLACEMENT_3D('',#402,#327,#328);
#301=AXIS2_PLACEMENT_3D('',#404,#330,#331);
#302=AXIS2_PLACEMENT_3D('',#410,#335,#336);
#303=AXIS2_PLACEMENT_3D('',#413,#337,#338);
#304=AXIS2_PLACEMENT_3D('',#417,#340,#341);
#305=AXIS2_PLACEMENT_3D('',#419,#343,#344);
#306=AXIS2_PLACEMENT_3D('',#425,#348,#349);
#307=AXIS2_PLACEMENT_3D('',#427,#350,#351);
#308=AXIS2_PLACEMENT_3D('',#430,#353,#354);
#309=AXIS2_PLACEMENT_3D('',#431,#355,#356);
#310=AXIS2_PLACEMENT_3D('',#433,#357,#358);
#311=AXIS2_PLACEMENT_3D('',#436,#360,#361);
#312=AXIS2_PLACEMENT_3D('',#437,#362,#363);
#313=AXIS2_PLACEMENT_3D('',#446,#368,#369);
#314=AXIS2_PLACEMENT_3D('',#449,#372,#373);
#315=AXIS2_PLACEMENT_3D('',#455,#377,#378);
#316=AXIS2_PLACEMENT_3D('',#458,#381,#382);
#317=AXIS2_PLACEMENT_3D('',#464,#386,#387);
#318=AXIS2_PLACEMENT_3D('',#467,#390,#391);
#319=AXIS2_PLACEMENT_3D('',#468,#392,#393);
#320=DIRECTION('axis',(0.,0.,1.));
#321=DIRECTION('refdir',(1.,0.,0.));
#322=DIRECTION('center_axis',(1.,0.,0.));
#323=DIRECTION('ref_axis',(0.,-0.707106781186547,-0.707106781186548));
#324=DIRECTION('center_axis',(-1.,0.,0.));
#325=DIRECTION('ref_axis',(0.,-0.707106781186547,-0.707106781186548));
#326=DIRECTION('',(1.,0.,0.));
#327=DIRECTION('center_axis',(1.,0.,0.));
#328=DIRECTION('ref_axis',(0.,-0.707106781186547,-0.707106781186548));
#329=DIRECTION('',(-1.,0.,0.));
#330=DIRECTION('center_axis',(0.,1.,-2.96059473233375E-16));
#331=DIRECTION('ref_axis',(0.,2.96059473233375E-16,1.));
#332=DIRECTION('',(0.,2.96059473233375E-16,1.));
#333=DIRECTION('',(1.,0.,0.));
#334=DIRECTION('',(0.,2.96059473233375E-16,1.));
#335=DIRECTION('center_axis',(1.,0.,0.));
#336=DIRECTION('ref_axis',(0.,0.707106781186547,-0.707106781186548));
#337=DIRECTION('center_axis',(-1.,0.,0.));
#338=DIRECTION('ref_axis',(0.,0.707106781186547,-0.707106781186548));
#339=DIRECTION('',(1.,0.,0.));
#340=DIRECTION('center_axis',(1.,0.,0.));
#341=DIRECTION('ref_axis',(0.,0.707106781186547,-0.707106781186548));
#342=DIRECTION('',(-1.,0.,0.));
#343=DIRECTION('center_axis',(0.,7.40148683083438E-16,1.));
#344=DIRECTION('ref_axis',(0.,-1.,7.40148683083438E-16));
#345=DIRECTION('',(0.,-1.,7.40148683083438E-16));
#346=DIRECTION('',(1.,0.,0.));
#347=DIRECTION('',(0.,-1.,7.40148683083438E-16));
#348=DIRECTION('center_axis',(1.,0.,0.));
#349=DIRECTION('ref_axis',(0.,0.,-1.));
#350=DIRECTION('center_axis',(-1.,0.,0.));
#351=DIRECTION('ref_axis',(0.,0.,-1.));
#352=DIRECTION('',(-1.,0.,0.));
#353=DIRECTION('center_axis',(1.,0.,0.));
#354=DIRECTION('ref_axis',(0.,0.,-1.));
#355=DIRECTION('center_axis',(1.,0.,0.));
#356=DIRECTION('ref_axis',(0.,0.,-1.));
#357=DIRECTION('center_axis',(-1.,0.,0.));
#358=DIRECTION('ref_axis',(0.,0.,-1.));
#359=DIRECTION('',(-1.,0.,0.));
#360=DIRECTION('center_axis',(1.,0.,0.));
#361=DIRECTION('ref_axis',(0.,0.,-1.));
#362=DIRECTION('center_axis',(0.,0.,-1.));
#363=DIRECTION('ref_axis',(0.,1.,0.));
#364=DIRECTION('',(0.,1.,0.));
#365=DIRECTION('',(1.,0.,0.));
#366=DIRECTION('',(0.,1.,0.));
#367=DIRECTION('',(1.,0.,0.));
#368=DIRECTION('center_axis',(0.,-1.,-7.53591067921234E-16));
#369=DIRECTION('ref_axis',(0.,7.53591067921234E-16,-1.));
#370=DIRECTION('',(0.,7.53591067921234E-16,-1.));
#371=DIRECTION('',(0.,7.53591067921234E-16,-1.));
#372=DIRECTION('center_axis',(0.,-1.,-1.48029736616688E-16));
#373=DIRECTION('ref_axis',(0.,1.48029736616688E-16,-1.));
#374=DIRECTION('',(0.,1.48029736616688E-16,-1.));
#375=DIRECTION('',(1.,0.,0.));
#376=DIRECTION('',(0.,1.48029736616688E-16,-1.));
#377=DIRECTION('center_axis',(0.,0.,1.));
#378=DIRECTION('ref_axis',(0.,-1.,0.));
#379=DIRECTION('',(0.,-1.,0.));
#380=DIRECTION('',(0.,-1.,0.));
#381=DIRECTION('center_axis',(0.,0.,1.));
#382=DIRECTION('ref_axis',(0.,-1.,0.));
#383=DIRECTION('',(0.,-1.,0.));
#384=DIRECTION('',(1.,0.,0.));
#385=DIRECTION('',(0.,-1.,0.));
#386=DIRECTION('center_axis',(0.,1.,0.));
#387=DIRECTION('ref_axis',(0.,0.,1.));
#388=DIRECTION('',(0.,0.,1.));
#389=DIRECTION('',(0.,0.,1.));
#390=DIRECTION('center_axis',(1.,0.,0.));
#391=DIRECTION('ref_axis',(0.,0.,-1.));
#392=DIRECTION('center_axis',(1.,0.,0.));
#393=DIRECTION('ref_axis',(0.,0.,-1.));
#394=CARTESIAN_POINT('',(0.,0.,0.));
#395=CARTESIAN_POINT('Origin',(0.,18.,-13.));
#396=CARTESIAN_POINT('',(0.,18.,-15.));
#397=CARTESIAN_POINT('',(0.,16.,-13.));
#398=CARTESIAN_POINT('Origin',(0.,18.,-13.));
#399=CARTESIAN_POINT('',(3.,16.,-13.));
#400=CARTESIAN_POINT('',(0.,16.,-13.));
#401=CARTESIAN_POINT('',(3.,18.,-15.));
#402=CARTESIAN_POINT('Origin',(3.,18.,-13.));
#403=CARTESIAN_POINT('',(0.,18.,-15.));
#404=CARTESIAN_POINT('Origin',(0.,16.,-15.));
#405=CARTESIAN_POINT('',(0.,16.,-1.10218211923262E-15));
#406=CARTESIAN_POINT('',(0.,16.,-15.));
#407=CARTESIAN_POINT('',(3.,16.,0.));
#408=CARTESIAN_POINT('',(0.,16.,-1.10218211923262E-15));
#409=CARTESIAN_POINT('',(3.,16.,-15.));
#410=CARTESIAN_POINT('Origin',(0.,4.,-13.));
#411=CARTESIAN_POINT('',(0.,6.,-13.));
#412=CARTESIAN_POINT('',(0.,4.,-15.));
#413=CARTESIAN_POINT('Origin',(0.,4.,-13.));
#414=CARTESIAN_POINT('',(3.,4.,-15.));
#415=CARTESIAN_POINT('',(0.,4.,-15.));
#416=CARTESIAN_POINT('',(3.,6.,-13.));
#417=CARTESIAN_POINT('Origin',(3.,4.,-13.));
#418=CARTESIAN_POINT('',(0.,6.,-13.));
#419=CARTESIAN_POINT('Origin',(0.,6.,-15.));
#420=CARTESIAN_POINT('',(0.,3.33066907387546E-15,-15.));
#421=CARTESIAN_POINT('',(0.,6.,-15.));
#422=CARTESIAN_POINT('',(3.,4.44089209850063E-15,-15.));
#423=CARTESIAN_POINT('',(0.,3.33066907387546E-15,-15.));
#424=CARTESIAN_POINT('',(3.,6.,-15.));
#425=CARTESIAN_POINT('Origin',(-51.7083174663597,11.,-5.));
#426=CARTESIAN_POINT('',(3.,11.,-1.8));
#427=CARTESIAN_POINT('Origin',(3.,11.,-5.));
#428=CARTESIAN_POINT('',(0.,11.,-1.8));
#429=CARTESIAN_POINT('',(-51.7083174663597,11.,-1.8));
#430=CARTESIAN_POINT('Origin',(0.,11.,-5.));
#431=CARTESIAN_POINT('Origin',(-51.7083174663597,11.,-39.));
#432=CARTESIAN_POINT('',(3.,11.,-29.8));
#433=CARTESIAN_POINT('Origin',(3.,11.,-39.));
#434=CARTESIAN_POINT('',(0.,11.,-29.8));
#435=CARTESIAN_POINT('',(-51.7083174663597,11.,-29.8));
#436=CARTESIAN_POINT('Origin',(0.,11.,-39.));
#437=CARTESIAN_POINT('Origin',(0.,3.76795533960617E-14,-50.));
#438=CARTESIAN_POINT('',(0.,3.76795533960617E-14,-50.));
#439=CARTESIAN_POINT('',(0.,22.,-50.));
#440=CARTESIAN_POINT('',(0.,3.5527136788005E-14,-50.));
#441=CARTESIAN_POINT('',(3.,22.,-50.));
#442=CARTESIAN_POINT('',(0.,22.,-50.));
#443=CARTESIAN_POINT('',(3.,3.5527136788005E-14,-50.));
#444=CARTESIAN_POINT('',(3.,3.5527136788005E-14,-50.));
#445=CARTESIAN_POINT('',(0.,3.76795533960617E-14,-50.));
#446=CARTESIAN_POINT('Origin',(0.,1.13038660188185E-14,-15.));
#447=CARTESIAN_POINT('',(0.,0.,0.));
#448=CARTESIAN_POINT('',(3.,0.,0.));
#449=CARTESIAN_POINT('Origin',(0.,6.,-1.10218211923262E-15));
#450=CARTESIAN_POINT('',(3.,6.,0.));
#451=CARTESIAN_POINT('',(3.,6.,0.));
#452=CARTESIAN_POINT('',(0.,6.,-1.10218211923262E-15));
#453=CARTESIAN_POINT('',(0.,6.,-1.10218211923262E-15));
#454=CARTESIAN_POINT('',(0.,6.,0.));
#455=CARTESIAN_POINT('Origin',(0.,16.,0.));
#456=CARTESIAN_POINT('',(0.,22.,0.));
#457=CARTESIAN_POINT('',(3.,22.,0.));
#458=CARTESIAN_POINT('Origin',(0.,22.,-15.));
#459=CARTESIAN_POINT('',(3.,22.,-15.));
#460=CARTESIAN_POINT('',(3.,22.,-15.));
#461=CARTESIAN_POINT('',(0.,22.,-15.));
#462=CARTESIAN_POINT('',(0.,22.,-15.));
#463=CARTESIAN_POINT('',(0.,22.,-15.));
#464=CARTESIAN_POINT('Origin',(0.,22.,-50.));
#465=CARTESIAN_POINT('',(0.,22.,-50.));
#466=CARTESIAN_POINT('',(3.,22.,-50.));
#467=CARTESIAN_POINT('Origin',(3.,11.,-25.));
#468=CARTESIAN_POINT('Origin',(0.,11.,-25.));
#469=UNCERTAINTY_MEASURE_WITH_UNIT(LENGTH_MEASURE(0.01),#473,
'DISTANCE_ACCURACY_VALUE',
'Maximum model space distance between geometric entities at asserted c
onnectivities');
#470=UNCERTAINTY_MEASURE_WITH_UNIT(LENGTH_MEASURE(0.01),#473,
'DISTANCE_ACCURACY_VALUE',
'Maximum model space distance between geometric entities at asserted c
onnectivities');
#471=(
GEOMETRIC_REPRESENTATION_CONTEXT(3)
GLOBAL_UNCERTAINTY_ASSIGNED_CONTEXT((#469))
GLOBAL_UNIT_ASSIGNED_CONTEXT((#473,#475,#476))
REPRESENTATION_CONTEXT('','3D')
);
#472=(
GEOMETRIC_REPRESENTATION_CONTEXT(3)
GLOBAL_UNCERTAINTY_ASSIGNED_CONTEXT((#470))
GLOBAL_UNIT_ASSIGNED_CONTEXT((#473,#475,#476))
REPRESENTATION_CONTEXT('','3D')
);
#473=(
LENGTH_UNIT()
NAMED_UNIT(*)
SI_UNIT(.MILLI.,.METRE.)
);
#474=(
LENGTH_UNIT()
NAMED_UNIT(*)
SI_UNIT(.CENTI.,.METRE.)
);
#475=(
NAMED_UNIT(*)
PLANE_ANGLE_UNIT()
SI_UNIT($,.RADIAN.)
);
#476=(
NAMED_UNIT(*)
SI_UNIT($,.STERADIAN.)
SOLID_ANGLE_UNIT()
);
#477=SHAPE_DEFINITION_REPRESENTATION(#478,#479);
#478=PRODUCT_DEFINITION_SHAPE('',$,#481);
#479=SHAPE_REPRESENTATION('',(#297),#471);
#480=PRODUCT_DEFINITION_CONTEXT('part definition',#485,'design');
#481=PRODUCT_DEFINITION('Position Sensor holder',
'Position Sensor holder',#482,#480);
#482=PRODUCT_DEFINITION_FORMATION('',$,#487);
#483=PRODUCT_RELATED_PRODUCT_CATEGORY('Position Sensor holder',
'Position Sensor holder',(#487));
#484=APPLICATION_PROTOCOL_DEFINITION('international standard',
'automotive_design',2009,#485);
#485=APPLICATION_CONTEXT(
'Core Data for Automotive Mechanical Design Process');
#486=PRODUCT_CONTEXT('part definition',#485,'mechanical');
#487=PRODUCT('Position Sensor holder','Position Sensor holder',$,(#486));
#488=PRESENTATION_STYLE_ASSIGNMENT((#489));
#489=SURFACE_STYLE_USAGE(.BOTH.,#492);
#490=SURFACE_STYLE_RENDERING_WITH_PROPERTIES($,#496,(#491));
#491=SURFACE_STYLE_TRANSPARENT(0.);
#492=SURFACE_SIDE_STYLE('',(#493,#490));
#493=SURFACE_STYLE_FILL_AREA(#494);
#494=FILL_AREA_STYLE('',(#495));
#495=FILL_AREA_STYLE_COLOUR('',#496);
#496=COLOUR_RGB('',0.996078431372549,0.996078431372549,1.);
ENDSEC;
END-ISO-10303-21;
