ISO-10303-21;
HEADER;
/* Generated by software containing ST-Developer
 * from STEP Tools, Inc. (www.steptools.com) 
 */

FILE_DESCRIPTION(
/* description */ (''),
/* implementation_level */ '2;1');

FILE_NAME(
/* name */ 
'C:\\VAULT_LOCAL\\WORKSPACE\\05_GSE\\MGSE\\GSE-052-MGSE-Torsional Thru
st Balance V2\\Mobile\\Magnet holder.stp',
/* time_stamp */ '2022-11-08T09:09:27+01:00',
/* author */ ('exolab-5mv6l'),
/* organization */ (''),
/* preprocessor_version */ 'ST-DEVELOPER v18.1',
/* originating_system */ 'Autodesk Inventor 2022',
/* authorisation */ '');

FILE_SCHEMA (('AUTOMOTIVE_DESIGN { 1 0 10303 214 3 1 1 }'));
ENDSEC;

DATA;
#10=MECHANICAL_DESIGN_GEOMETRIC_PRESENTATION_REPRESENTATION('',(#13),#598);
#11=SHAPE_REPRESENTATION_RELATIONSHIP('SRR','None',#605,#12);
#12=ADVANCED_BREP_SHAPE_REPRESENTATION('',(#14),#597);
#13=STYLED_ITEM('',(#614),#14);
#14=MANIFOLD_SOLID_BREP('Solid1',#335);
#15=B_SPLINE_CURVE_WITH_KNOTS('',3,(#552,#553,#554,#555,#556,#557,#558,
#559,#560,#561),.UNSPECIFIED.,.F.,.F.,(4,2,2,2,4),(0.,0.0295966117835773,
0.0591932235671545,0.0887883119508815,0.118383400334609),.UNSPECIFIED.);
#16=B_SPLINE_CURVE_WITH_KNOTS('',3,(#562,#563,#564,#565,#566,#567,#568,
#569,#570,#571,#572,#573,#574,#575,#576,#577,#578,#579,#580,#581,#582,#583,
#584,#585,#586,#587),.UNSPECIFIED.,.F.,.F.,(4,2,2,2,2,2,2,2,2,2,2,2,4),
(0.118383400334609,0.147978488718336,0.177573577102063,0.20717018888564,
0.236766800669217,0.266363412452794,0.295960024236372,0.325555112620098,
0.355150201003825,0.384745289387552,0.414340377771278,0.443936989554855,
0.473533601338433),.UNSPECIFIED.);
#17=FACE_BOUND('',#52,.T.);
#18=FACE_BOUND('',#54,.T.);
#19=FACE_BOUND('',#59,.T.);
#20=FACE_BOUND('',#63,.T.);
#21=FACE_BOUND('',#66,.T.);
#22=PLANE('',#366);
#23=PLANE('',#368);
#24=PLANE('',#370);
#25=PLANE('',#371);
#26=PLANE('',#372);
#27=PLANE('',#373);
#28=PLANE('',#374);
#29=PLANE('',#378);
#30=PLANE('',#379);
#31=PLANE('',#380);
#32=CYLINDRICAL_SURFACE('',#362,1.621);
#33=CYLINDRICAL_SURFACE('',#375,0.7835);
#34=CYLINDRICAL_SURFACE('',#377,4.);
#35=FACE_OUTER_BOUND('',#49,.T.);
#36=FACE_OUTER_BOUND('',#50,.T.);
#37=FACE_OUTER_BOUND('',#51,.T.);
#38=FACE_OUTER_BOUND('',#53,.T.);
#39=FACE_OUTER_BOUND('',#55,.T.);
#40=FACE_OUTER_BOUND('',#56,.T.);
#41=FACE_OUTER_BOUND('',#57,.T.);
#42=FACE_OUTER_BOUND('',#58,.T.);
#43=FACE_OUTER_BOUND('',#60,.T.);
#44=FACE_OUTER_BOUND('',#61,.T.);
#45=FACE_OUTER_BOUND('',#62,.T.);
#46=FACE_OUTER_BOUND('',#64,.T.);
#47=FACE_OUTER_BOUND('',#65,.T.);
#48=FACE_OUTER_BOUND('',#67,.T.);
#49=EDGE_LOOP('',(#226,#227,#228,#229,#230,#231,#232));
#50=EDGE_LOOP('',(#233,#234,#235,#236,#237,#238,#239,#240,#241,#242,#243,
#244));
#51=EDGE_LOOP('',(#245,#246,#247,#248,#249,#250,#251,#252));
#52=EDGE_LOOP('',(#253));
#53=EDGE_LOOP('',(#254,#255,#256,#257,#258,#259,#260,#261));
#54=EDGE_LOOP('',(#262));
#55=EDGE_LOOP('',(#263,#264,#265,#266,#267,#268));
#56=EDGE_LOOP('',(#269,#270,#271,#272));
#57=EDGE_LOOP('',(#273,#274,#275,#276));
#58=EDGE_LOOP('',(#277,#278,#279,#280));
#59=EDGE_LOOP('',(#281));
#60=EDGE_LOOP('',(#282,#283,#284,#285,#286,#287));
#61=EDGE_LOOP('',(#288,#289,#290,#291,#292));
#62=EDGE_LOOP('',(#293,#294,#295,#296));
#63=EDGE_LOOP('',(#297,#298));
#64=EDGE_LOOP('',(#299,#300,#301,#302));
#65=EDGE_LOOP('',(#303,#304,#305,#306,#307,#308,#309,#310));
#66=EDGE_LOOP('',(#311));
#67=EDGE_LOOP('',(#312,#313,#314,#315,#316,#317,#318,#319));
#68=LINE('',#473,#102);
#69=LINE('',#484,#103);
#70=LINE('',#486,#104);
#71=LINE('',#489,#105);
#72=LINE('',#491,#106);
#73=LINE('',#494,#107);
#74=LINE('',#497,#108);
#75=LINE('',#499,#109);
#76=LINE('',#501,#110);
#77=LINE('',#503,#111);
#78=LINE('',#504,#112);
#79=LINE('',#509,#113);
#80=LINE('',#511,#114);
#81=LINE('',#513,#115);
#82=LINE('',#515,#116);
#83=LINE('',#516,#117);
#84=LINE('',#521,#118);
#85=LINE('',#523,#119);
#86=LINE('',#524,#120);
#87=LINE('',#527,#121);
#88=LINE('',#529,#122);
#89=LINE('',#530,#123);
#90=LINE('',#534,#124);
#91=LINE('',#536,#125);
#92=LINE('',#538,#126);
#93=LINE('',#539,#127);
#94=LINE('',#541,#128);
#95=LINE('',#542,#129);
#96=LINE('',#544,#130);
#97=LINE('',#545,#131);
#98=LINE('',#550,#132);
#99=LINE('',#589,#133);
#100=LINE('',#591,#134);
#101=LINE('',#592,#135);
#102=VECTOR('',#387,0.8105);
#103=VECTOR('',#396,1.621);
#104=VECTOR('',#397,10.);
#105=VECTOR('',#400,10.);
#106=VECTOR('',#401,10.);
#107=VECTOR('',#404,10.);
#108=VECTOR('',#407,10.);
#109=VECTOR('',#408,10.);
#110=VECTOR('',#409,10.);
#111=VECTOR('',#410,10.);
#112=VECTOR('',#411,10.);
#113=VECTOR('',#416,10.);
#114=VECTOR('',#417,10.);
#115=VECTOR('',#418,10.);
#116=VECTOR('',#419,10.);
#117=VECTOR('',#420,10.);
#118=VECTOR('',#425,10.);
#119=VECTOR('',#426,10.);
#120=VECTOR('',#427,10.);
#121=VECTOR('',#430,10.);
#122=VECTOR('',#431,10.);
#123=VECTOR('',#432,10.);
#124=VECTOR('',#435,10.);
#125=VECTOR('',#436,10.);
#126=VECTOR('',#437,10.);
#127=VECTOR('',#438,10.);
#128=VECTOR('',#441,10.);
#129=VECTOR('',#442,10.);
#130=VECTOR('',#445,10.);
#131=VECTOR('',#446,10.);
#132=VECTOR('',#451,0.7835);
#133=VECTOR('',#454,4.);
#134=VECTOR('',#457,10.);
#135=VECTOR('',#458,10.);
#136=CIRCLE('',#359,1.621);
#137=CIRCLE('',#360,1.621);
#138=CIRCLE('',#361,1.621);
#139=CIRCLE('',#363,1.621);
#140=CIRCLE('',#364,1.621);
#141=CIRCLE('',#365,1.621);
#142=CIRCLE('',#367,4.);
#143=CIRCLE('',#369,4.);
#144=CIRCLE('',#376,0.7835);
#145=(
BOUNDED_CURVE()
B_SPLINE_CURVE(2,(#467,#468,#469),.UNSPECIFIED.,.F.,.F.)
B_SPLINE_CURVE_WITH_KNOTS((3,3),(0.,0.123762173741721),.UNSPECIFIED.)
CURVE()
GEOMETRIC_REPRESENTATION_ITEM()
RATIONAL_B_SPLINE_CURVE((1.,1.08066666666667,1.))
REPRESENTATION_ITEM('')
);
#146=(
BOUNDED_CURVE()
B_SPLINE_CURVE(2,(#477,#478,#479),.UNSPECIFIED.,.F.,.F.)
B_SPLINE_CURVE_WITH_KNOTS((3,3),(0.,0.123762173741723),.UNSPECIFIED.)
CURVE()
GEOMETRIC_REPRESENTATION_ITEM()
RATIONAL_B_SPLINE_CURVE((1.,1.08066666666668,1.))
REPRESENTATION_ITEM('')
);
#147=VERTEX_POINT('',#465);
#148=VERTEX_POINT('',#466);
#149=VERTEX_POINT('',#470);
#150=VERTEX_POINT('',#472);
#151=VERTEX_POINT('',#474);
#152=VERTEX_POINT('',#476);
#153=VERTEX_POINT('',#482);
#154=VERTEX_POINT('',#485);
#155=VERTEX_POINT('',#487);
#156=VERTEX_POINT('',#490);
#157=VERTEX_POINT('',#492);
#158=VERTEX_POINT('',#496);
#159=VERTEX_POINT('',#498);
#160=VERTEX_POINT('',#500);
#161=VERTEX_POINT('',#502);
#162=VERTEX_POINT('',#505);
#163=VERTEX_POINT('',#508);
#164=VERTEX_POINT('',#510);
#165=VERTEX_POINT('',#512);
#166=VERTEX_POINT('',#514);
#167=VERTEX_POINT('',#517);
#168=VERTEX_POINT('',#520);
#169=VERTEX_POINT('',#522);
#170=VERTEX_POINT('',#526);
#171=VERTEX_POINT('',#528);
#172=VERTEX_POINT('',#532);
#173=VERTEX_POINT('',#533);
#174=VERTEX_POINT('',#535);
#175=VERTEX_POINT('',#537);
#176=VERTEX_POINT('',#547);
#177=VERTEX_POINT('',#549);
#178=VERTEX_POINT('',#551);
#179=EDGE_CURVE('',#147,#148,#145,.T.);
#180=EDGE_CURVE('',#147,#149,#136,.T.);
#181=EDGE_CURVE('',#149,#150,#68,.T.);
#182=EDGE_CURVE('',#149,#151,#137,.T.);
#183=EDGE_CURVE('',#152,#151,#146,.T.);
#184=EDGE_CURVE('',#152,#148,#138,.T.);
#185=EDGE_CURVE('',#153,#153,#139,.T.);
#186=EDGE_CURVE('',#153,#149,#69,.T.);
#187=EDGE_CURVE('',#154,#147,#70,.T.);
#188=EDGE_CURVE('',#155,#154,#140,.T.);
#189=EDGE_CURVE('',#148,#155,#71,.T.);
#190=EDGE_CURVE('',#156,#152,#72,.T.);
#191=EDGE_CURVE('',#157,#156,#141,.T.);
#192=EDGE_CURVE('',#151,#157,#73,.T.);
#193=EDGE_CURVE('',#155,#158,#74,.T.);
#194=EDGE_CURVE('',#159,#158,#75,.T.);
#195=EDGE_CURVE('',#160,#159,#76,.T.);
#196=EDGE_CURVE('',#160,#161,#77,.T.);
#197=EDGE_CURVE('',#161,#154,#78,.T.);
#198=EDGE_CURVE('',#162,#162,#142,.T.);
#199=EDGE_CURVE('',#163,#157,#79,.T.);
#200=EDGE_CURVE('',#163,#164,#80,.T.);
#201=EDGE_CURVE('',#164,#165,#81,.T.);
#202=EDGE_CURVE('',#166,#165,#82,.T.);
#203=EDGE_CURVE('',#156,#166,#83,.T.);
#204=EDGE_CURVE('',#167,#167,#143,.T.);
#205=EDGE_CURVE('',#168,#161,#84,.T.);
#206=EDGE_CURVE('',#169,#168,#85,.T.);
#207=EDGE_CURVE('',#158,#169,#86,.T.);
#208=EDGE_CURVE('',#168,#170,#87,.T.);
#209=EDGE_CURVE('',#171,#170,#88,.T.);
#210=EDGE_CURVE('',#169,#171,#89,.T.);
#211=EDGE_CURVE('',#172,#173,#90,.T.);
#212=EDGE_CURVE('',#173,#174,#91,.T.);
#213=EDGE_CURVE('',#175,#174,#92,.T.);
#214=EDGE_CURVE('',#172,#175,#93,.T.);
#215=EDGE_CURVE('',#170,#175,#94,.T.);
#216=EDGE_CURVE('',#174,#171,#95,.T.);
#217=EDGE_CURVE('',#173,#166,#96,.T.);
#218=EDGE_CURVE('',#163,#172,#97,.T.);
#219=EDGE_CURVE('',#176,#176,#144,.T.);
#220=EDGE_CURVE('',#176,#177,#98,.T.);
#221=EDGE_CURVE('',#178,#177,#15,.T.);
#222=EDGE_CURVE('',#177,#178,#16,.T.);
#223=EDGE_CURVE('',#167,#162,#99,.T.);
#224=EDGE_CURVE('',#164,#160,#100,.T.);
#225=EDGE_CURVE('',#165,#159,#101,.T.);
#226=ORIENTED_EDGE('',*,*,#179,.F.);
#227=ORIENTED_EDGE('',*,*,#180,.T.);
#228=ORIENTED_EDGE('',*,*,#181,.T.);
#229=ORIENTED_EDGE('',*,*,#181,.F.);
#230=ORIENTED_EDGE('',*,*,#182,.T.);
#231=ORIENTED_EDGE('',*,*,#183,.F.);
#232=ORIENTED_EDGE('',*,*,#184,.T.);
#233=ORIENTED_EDGE('',*,*,#185,.F.);
#234=ORIENTED_EDGE('',*,*,#186,.T.);
#235=ORIENTED_EDGE('',*,*,#180,.F.);
#236=ORIENTED_EDGE('',*,*,#187,.F.);
#237=ORIENTED_EDGE('',*,*,#188,.F.);
#238=ORIENTED_EDGE('',*,*,#189,.F.);
#239=ORIENTED_EDGE('',*,*,#184,.F.);
#240=ORIENTED_EDGE('',*,*,#190,.F.);
#241=ORIENTED_EDGE('',*,*,#191,.F.);
#242=ORIENTED_EDGE('',*,*,#192,.F.);
#243=ORIENTED_EDGE('',*,*,#182,.F.);
#244=ORIENTED_EDGE('',*,*,#186,.F.);
#245=ORIENTED_EDGE('',*,*,#187,.T.);
#246=ORIENTED_EDGE('',*,*,#179,.T.);
#247=ORIENTED_EDGE('',*,*,#189,.T.);
#248=ORIENTED_EDGE('',*,*,#193,.T.);
#249=ORIENTED_EDGE('',*,*,#194,.F.);
#250=ORIENTED_EDGE('',*,*,#195,.F.);
#251=ORIENTED_EDGE('',*,*,#196,.T.);
#252=ORIENTED_EDGE('',*,*,#197,.T.);
#253=ORIENTED_EDGE('',*,*,#198,.T.);
#254=ORIENTED_EDGE('',*,*,#190,.T.);
#255=ORIENTED_EDGE('',*,*,#183,.T.);
#256=ORIENTED_EDGE('',*,*,#192,.T.);
#257=ORIENTED_EDGE('',*,*,#199,.F.);
#258=ORIENTED_EDGE('',*,*,#200,.T.);
#259=ORIENTED_EDGE('',*,*,#201,.T.);
#260=ORIENTED_EDGE('',*,*,#202,.F.);
#261=ORIENTED_EDGE('',*,*,#203,.F.);
#262=ORIENTED_EDGE('',*,*,#204,.T.);
#263=ORIENTED_EDGE('',*,*,#188,.T.);
#264=ORIENTED_EDGE('',*,*,#197,.F.);
#265=ORIENTED_EDGE('',*,*,#205,.F.);
#266=ORIENTED_EDGE('',*,*,#206,.F.);
#267=ORIENTED_EDGE('',*,*,#207,.F.);
#268=ORIENTED_EDGE('',*,*,#193,.F.);
#269=ORIENTED_EDGE('',*,*,#206,.T.);
#270=ORIENTED_EDGE('',*,*,#208,.T.);
#271=ORIENTED_EDGE('',*,*,#209,.F.);
#272=ORIENTED_EDGE('',*,*,#210,.F.);
#273=ORIENTED_EDGE('',*,*,#211,.T.);
#274=ORIENTED_EDGE('',*,*,#212,.T.);
#275=ORIENTED_EDGE('',*,*,#213,.F.);
#276=ORIENTED_EDGE('',*,*,#214,.F.);
#277=ORIENTED_EDGE('',*,*,#215,.T.);
#278=ORIENTED_EDGE('',*,*,#213,.T.);
#279=ORIENTED_EDGE('',*,*,#216,.T.);
#280=ORIENTED_EDGE('',*,*,#209,.T.);
#281=ORIENTED_EDGE('',*,*,#185,.T.);
#282=ORIENTED_EDGE('',*,*,#191,.T.);
#283=ORIENTED_EDGE('',*,*,#203,.T.);
#284=ORIENTED_EDGE('',*,*,#217,.F.);
#285=ORIENTED_EDGE('',*,*,#211,.F.);
#286=ORIENTED_EDGE('',*,*,#218,.F.);
#287=ORIENTED_EDGE('',*,*,#199,.T.);
#288=ORIENTED_EDGE('',*,*,#219,.F.);
#289=ORIENTED_EDGE('',*,*,#220,.T.);
#290=ORIENTED_EDGE('',*,*,#221,.F.);
#291=ORIENTED_EDGE('',*,*,#222,.F.);
#292=ORIENTED_EDGE('',*,*,#220,.F.);
#293=ORIENTED_EDGE('',*,*,#204,.F.);
#294=ORIENTED_EDGE('',*,*,#223,.T.);
#295=ORIENTED_EDGE('',*,*,#198,.F.);
#296=ORIENTED_EDGE('',*,*,#223,.F.);
#297=ORIENTED_EDGE('',*,*,#221,.T.);
#298=ORIENTED_EDGE('',*,*,#222,.T.);
#299=ORIENTED_EDGE('',*,*,#224,.T.);
#300=ORIENTED_EDGE('',*,*,#195,.T.);
#301=ORIENTED_EDGE('',*,*,#225,.F.);
#302=ORIENTED_EDGE('',*,*,#201,.F.);
#303=ORIENTED_EDGE('',*,*,#194,.T.);
#304=ORIENTED_EDGE('',*,*,#207,.T.);
#305=ORIENTED_EDGE('',*,*,#210,.T.);
#306=ORIENTED_EDGE('',*,*,#216,.F.);
#307=ORIENTED_EDGE('',*,*,#212,.F.);
#308=ORIENTED_EDGE('',*,*,#217,.T.);
#309=ORIENTED_EDGE('',*,*,#202,.T.);
#310=ORIENTED_EDGE('',*,*,#225,.T.);
#311=ORIENTED_EDGE('',*,*,#219,.T.);
#312=ORIENTED_EDGE('',*,*,#196,.F.);
#313=ORIENTED_EDGE('',*,*,#224,.F.);
#314=ORIENTED_EDGE('',*,*,#200,.F.);
#315=ORIENTED_EDGE('',*,*,#218,.T.);
#316=ORIENTED_EDGE('',*,*,#214,.T.);
#317=ORIENTED_EDGE('',*,*,#215,.F.);
#318=ORIENTED_EDGE('',*,*,#208,.F.);
#319=ORIENTED_EDGE('',*,*,#205,.T.);
#320=CONICAL_SURFACE('',#358,0.8105,1.02974425867665);
#321=ADVANCED_FACE('',(#35),#320,.F.);
#322=ADVANCED_FACE('',(#36),#32,.F.);
#323=ADVANCED_FACE('',(#37,#17),#22,.T.);
#324=ADVANCED_FACE('',(#38,#18),#23,.T.);
#325=ADVANCED_FACE('',(#39),#24,.F.);
#326=ADVANCED_FACE('',(#40),#25,.T.);
#327=ADVANCED_FACE('',(#41),#26,.T.);
#328=ADVANCED_FACE('',(#42,#19),#27,.T.);
#329=ADVANCED_FACE('',(#43),#28,.F.);
#330=ADVANCED_FACE('',(#44),#33,.F.);
#331=ADVANCED_FACE('',(#45,#20),#34,.F.);
#332=ADVANCED_FACE('',(#46),#29,.T.);
#333=ADVANCED_FACE('',(#47,#21),#30,.T.);
#334=ADVANCED_FACE('',(#48),#31,.F.);
#335=CLOSED_SHELL('',(#321,#322,#323,#324,#325,#326,#327,#328,#329,#330,
#331,#332,#333,#334));
#336=DERIVED_UNIT_ELEMENT(#339,1.);
#337=DERIVED_UNIT_ELEMENT(#600,-3.);
#338=DIMENSIONAL_EXPONENTS(1.,0.,0.,0.,0.,0.,0.);
#339=(
CONVERSION_BASED_UNIT('gram',#341)
MASS_UNIT()
NAMED_UNIT(#338)
);
#340=(
MASS_UNIT()
NAMED_UNIT(*)
SI_UNIT(.KILO.,.GRAM.)
);
#341=MASS_MEASURE_WITH_UNIT(MASS_MEASURE(0.001),#340);
#342=DERIVED_UNIT((#336,#337));
#343=MEASURE_REPRESENTATION_ITEM('density measure',
POSITIVE_RATIO_MEASURE(2.7),#342);
#344=PROPERTY_DEFINITION_REPRESENTATION(#349,#346);
#345=PROPERTY_DEFINITION_REPRESENTATION(#350,#347);
#346=REPRESENTATION('material name',(#348),#597);
#347=REPRESENTATION('density',(#343),#597);
#348=DESCRIPTIVE_REPRESENTATION_ITEM('Aluminium 6061','Aluminium 6061');
#349=PROPERTY_DEFINITION('material property','material name',#607);
#350=PROPERTY_DEFINITION('material property','density of part',#607);
#351=DATE_TIME_ROLE('creation_date');
#352=APPLIED_DATE_AND_TIME_ASSIGNMENT(#353,#351,(#607));
#353=DATE_AND_TIME(#354,#355);
#354=CALENDAR_DATE(2022,4,11);
#355=LOCAL_TIME(0,0,0.,#356);
#356=COORDINATED_UNIVERSAL_TIME_OFFSET(0,0,.BEHIND.);
#357=AXIS2_PLACEMENT_3D('placement',#463,#381,#382);
#358=AXIS2_PLACEMENT_3D('',#464,#383,#384);
#359=AXIS2_PLACEMENT_3D('',#471,#385,#386);
#360=AXIS2_PLACEMENT_3D('',#475,#388,#389);
#361=AXIS2_PLACEMENT_3D('',#480,#390,#391);
#362=AXIS2_PLACEMENT_3D('',#481,#392,#393);
#363=AXIS2_PLACEMENT_3D('',#483,#394,#395);
#364=AXIS2_PLACEMENT_3D('',#488,#398,#399);
#365=AXIS2_PLACEMENT_3D('',#493,#402,#403);
#366=AXIS2_PLACEMENT_3D('',#495,#405,#406);
#367=AXIS2_PLACEMENT_3D('',#506,#412,#413);
#368=AXIS2_PLACEMENT_3D('',#507,#414,#415);
#369=AXIS2_PLACEMENT_3D('',#518,#421,#422);
#370=AXIS2_PLACEMENT_3D('',#519,#423,#424);
#371=AXIS2_PLACEMENT_3D('',#525,#428,#429);
#372=AXIS2_PLACEMENT_3D('',#531,#433,#434);
#373=AXIS2_PLACEMENT_3D('',#540,#439,#440);
#374=AXIS2_PLACEMENT_3D('',#543,#443,#444);
#375=AXIS2_PLACEMENT_3D('',#546,#447,#448);
#376=AXIS2_PLACEMENT_3D('',#548,#449,#450);
#377=AXIS2_PLACEMENT_3D('',#588,#452,#453);
#378=AXIS2_PLACEMENT_3D('',#590,#455,#456);
#379=AXIS2_PLACEMENT_3D('',#593,#459,#460);
#380=AXIS2_PLACEMENT_3D('',#594,#461,#462);
#381=DIRECTION('axis',(0.,0.,1.));
#382=DIRECTION('refdir',(1.,0.,0.));
#383=DIRECTION('center_axis',(0.,1.,0.));
#384=DIRECTION('ref_axis',(1.,0.,0.));
#385=DIRECTION('center_axis',(0.,1.,0.));
#386=DIRECTION('ref_axis',(1.,0.,0.));
#387=DIRECTION('',(0.857167300702112,-0.515038074910054,-1.04972719113862E-16));
#388=DIRECTION('center_axis',(0.,1.,0.));
#389=DIRECTION('ref_axis',(1.,0.,0.));
#390=DIRECTION('center_axis',(0.,1.,0.));
#391=DIRECTION('ref_axis',(1.,0.,0.));
#392=DIRECTION('center_axis',(0.,1.,0.));
#393=DIRECTION('ref_axis',(1.,0.,0.));
#394=DIRECTION('center_axis',(0.,-1.,0.));
#395=DIRECTION('ref_axis',(1.,0.,0.));
#396=DIRECTION('',(0.,-1.,0.));
#397=DIRECTION('',(0.,-1.,0.));
#398=DIRECTION('center_axis',(0.,1.,0.));
#399=DIRECTION('ref_axis',(1.,0.,0.));
#400=DIRECTION('',(0.,1.,0.));
#401=DIRECTION('',(0.,-1.,0.));
#402=DIRECTION('center_axis',(0.,1.,0.));
#403=DIRECTION('ref_axis',(1.,0.,0.));
#404=DIRECTION('',(0.,1.,0.));
#405=DIRECTION('center_axis',(0.,9.86864910777917E-17,-1.));
#406=DIRECTION('ref_axis',(0.,1.,9.86864910777917E-17));
#407=DIRECTION('',(1.,0.,0.));
#408=DIRECTION('',(0.,1.,9.86864910777917E-17));
#409=DIRECTION('',(1.,0.,0.));
#410=DIRECTION('',(0.,1.,9.86864910777917E-17));
#411=DIRECTION('',(1.,0.,0.));
#412=DIRECTION('center_axis',(0.,-9.86864910777917E-17,1.));
#413=DIRECTION('ref_axis',(1.,0.,0.));
#414=DIRECTION('center_axis',(0.,-2.46716227694479E-17,1.));
#415=DIRECTION('ref_axis',(0.,-1.,-2.46716227694479E-17));
#416=DIRECTION('',(1.,0.,0.));
#417=DIRECTION('',(0.,-1.,-2.46716227694479E-17));
#418=DIRECTION('',(1.,0.,0.));
#419=DIRECTION('',(0.,-1.,-2.46716227694479E-17));
#420=DIRECTION('',(1.,0.,0.));
#421=DIRECTION('center_axis',(0.,2.46716227694479E-17,-1.));
#422=DIRECTION('ref_axis',(1.,0.,0.));
#423=DIRECTION('center_axis',(0.,1.,0.));
#424=DIRECTION('ref_axis',(0.,0.,1.));
#425=DIRECTION('',(6.24500451351651E-16,0.,1.));
#426=DIRECTION('',(-1.,0.,2.77555756156289E-16));
#427=DIRECTION('',(0.,0.,-1.));
#428=DIRECTION('center_axis',(-2.77555756156289E-16,0.,-1.));
#429=DIRECTION('ref_axis',(-1.,0.,2.77555756156289E-16));
#430=DIRECTION('',(0.,1.,0.));
#431=DIRECTION('',(-1.,0.,2.77555756156289E-16));
#432=DIRECTION('',(0.,1.,0.));
#433=DIRECTION('center_axis',(3.00685402502646E-16,0.,1.));
#434=DIRECTION('ref_axis',(1.,0.,-3.00685402502646E-16));
#435=DIRECTION('',(1.,0.,-3.00685402502646E-16));
#436=DIRECTION('',(0.,1.,0.));
#437=DIRECTION('',(1.,0.,-3.00685402502646E-16));
#438=DIRECTION('',(0.,1.,0.));
#439=DIRECTION('center_axis',(0.,1.,0.));
#440=DIRECTION('ref_axis',(0.,0.,1.));
#441=DIRECTION('',(6.24500451351651E-16,0.,1.));
#442=DIRECTION('',(0.,0.,-1.));
#443=DIRECTION('center_axis',(0.,1.,0.));
#444=DIRECTION('ref_axis',(0.,0.,1.));
#445=DIRECTION('',(0.,0.,-1.));
#446=DIRECTION('',(6.24500451351651E-16,0.,1.));
#447=DIRECTION('center_axis',(1.,0.,0.));
#448=DIRECTION('ref_axis',(0.,0.,-1.));
#449=DIRECTION('center_axis',(-1.,0.,0.));
#450=DIRECTION('ref_axis',(0.,0.,-1.));
#451=DIRECTION('',(-1.,0.,0.));
#452=DIRECTION('center_axis',(0.,-2.46716227694479E-17,1.));
#453=DIRECTION('ref_axis',(1.,0.,0.));
#454=DIRECTION('',(0.,2.46716227694479E-17,-1.));
#455=DIRECTION('center_axis',(0.,-1.,0.));
#456=DIRECTION('ref_axis',(0.,0.,-1.));
#457=DIRECTION('',(0.,0.,-1.));
#458=DIRECTION('',(0.,0.,-1.));
#459=DIRECTION('center_axis',(1.,0.,0.));
#460=DIRECTION('ref_axis',(0.,0.,-1.));
#461=DIRECTION('center_axis',(1.,0.,0.));
#462=DIRECTION('ref_axis',(0.,0.,-1.));
#463=CARTESIAN_POINT('',(0.,0.,0.));
#464=CARTESIAN_POINT('Origin',(6.,-7.28699753172184,-1.5));
#465=CARTESIAN_POINT('',(5.38547498016761,-6.8,-3.));
#466=CARTESIAN_POINT('',(6.61452501983239,-6.8,-3.));
#467=CARTESIAN_POINT('Ctrl Pts',(5.38547498016761,-6.8,-3.));
#468=CARTESIAN_POINT('Ctrl Pts',(6.,-6.9399812492475,-3.));
#469=CARTESIAN_POINT('Ctrl Pts',(6.61452501983239,-6.8,-3.));
#470=CARTESIAN_POINT('',(4.379,-6.8,-1.5));
#471=CARTESIAN_POINT('Origin',(6.,-6.8,-1.5));
#472=CARTESIAN_POINT('',(6.,-7.77399506344368,-1.5));
#473=CARTESIAN_POINT('',(5.1895,-7.28699753172184,-1.5));
#474=CARTESIAN_POINT('',(5.3854749801676,-6.8,0.));
#475=CARTESIAN_POINT('Origin',(6.,-6.8,-1.5));
#476=CARTESIAN_POINT('',(6.6145250198324,-6.8,0.));
#477=CARTESIAN_POINT('Ctrl Pts',(6.6145250198324,-6.8,-2.77555756156289E-16));
#478=CARTESIAN_POINT('Ctrl Pts',(6.,-6.9399812492475,-2.81009320732519E-16));
#479=CARTESIAN_POINT('Ctrl Pts',(5.3854749801676,-6.8,-2.77555756156289E-16));
#480=CARTESIAN_POINT('Origin',(6.,-6.8,-1.5));
#481=CARTESIAN_POINT('Origin',(6.,-0.900000000000001,-1.5));
#482=CARTESIAN_POINT('',(4.379,5.,-1.5));
#483=CARTESIAN_POINT('Origin',(6.,5.,-1.5));
#484=CARTESIAN_POINT('',(4.379,-0.900000000000001,-1.5));
#485=CARTESIAN_POINT('',(5.38547498016761,0.,-3.));
#486=CARTESIAN_POINT('',(5.38547498016761,-0.899999999999999,-3.));
#487=CARTESIAN_POINT('',(6.61452501983239,0.,-3.));
#488=CARTESIAN_POINT('Origin',(6.,0.,-1.5));
#489=CARTESIAN_POINT('',(6.61452501983239,-0.899999999999999,-3.));
#490=CARTESIAN_POINT('',(6.6145250198324,0.,0.));
#491=CARTESIAN_POINT('',(6.6145250198324,-0.900000000000001,0.));
#492=CARTESIAN_POINT('',(5.3854749801676,0.,0.));
#493=CARTESIAN_POINT('Origin',(6.,0.,-1.5));
#494=CARTESIAN_POINT('',(5.3854749801676,-0.900000000000001,0.));
#495=CARTESIAN_POINT('Origin',(0.,-45.,-3.));
#496=CARTESIAN_POINT('',(12.,0.,-3.));
#497=CARTESIAN_POINT('',(0.,0.,-3.));
#498=CARTESIAN_POINT('',(12.,-45.,-3.));
#499=CARTESIAN_POINT('',(12.,-45.,-3.));
#500=CARTESIAN_POINT('',(0.,-45.,-3.));
#501=CARTESIAN_POINT('',(0.,-45.,-3.));
#502=CARTESIAN_POINT('',(0.,0.,-3.));
#503=CARTESIAN_POINT('',(0.,-45.,-3.));
#504=CARTESIAN_POINT('',(0.,0.,-3.));
#505=CARTESIAN_POINT('',(2.,-39.,-3.));
#506=CARTESIAN_POINT('Origin',(6.,-39.,-3.));
#507=CARTESIAN_POINT('Origin',(0.,0.,0.));
#508=CARTESIAN_POINT('',(0.,0.,0.));
#509=CARTESIAN_POINT('',(0.,0.,0.));
#510=CARTESIAN_POINT('',(0.,-45.,-1.11022302462516E-15));
#511=CARTESIAN_POINT('',(0.,0.,0.));
#512=CARTESIAN_POINT('',(12.,-45.,-1.11022302462516E-15));
#513=CARTESIAN_POINT('',(0.,-45.,-1.11022302462516E-15));
#514=CARTESIAN_POINT('',(12.,0.,0.));
#515=CARTESIAN_POINT('',(12.,0.,0.));
#516=CARTESIAN_POINT('',(0.,0.,0.));
#517=CARTESIAN_POINT('',(2.,-39.,0.));
#518=CARTESIAN_POINT('Origin',(6.,-39.,0.));
#519=CARTESIAN_POINT('Origin',(6.,0.,-1.5));
#520=CARTESIAN_POINT('',(-4.44089209850063E-15,0.,-5.49999999999999));
#521=CARTESIAN_POINT('',(-4.44089209850063E-15,0.,-5.49999999999999));
#522=CARTESIAN_POINT('',(12.,0.,-5.49999999999999));
#523=CARTESIAN_POINT('',(12.,0.,-5.49999999999999));
#524=CARTESIAN_POINT('',(12.,0.,2.5));
#525=CARTESIAN_POINT('Origin',(12.,0.,-5.49999999999999));
#526=CARTESIAN_POINT('',(-4.44089209850063E-15,5.,-5.49999999999999));
#527=CARTESIAN_POINT('',(-4.44089209850063E-15,0.,-5.49999999999999));
#528=CARTESIAN_POINT('',(12.,5.,-5.49999999999999));
#529=CARTESIAN_POINT('',(12.,5.,-5.49999999999999));
#530=CARTESIAN_POINT('',(12.,0.,-5.49999999999999));
#531=CARTESIAN_POINT('Origin',(5.55111512312578E-16,0.,2.5));
#532=CARTESIAN_POINT('',(5.55111512312578E-16,0.,2.5));
#533=CARTESIAN_POINT('',(12.,0.,2.5));
#534=CARTESIAN_POINT('',(0.,0.,2.5));
#535=CARTESIAN_POINT('',(12.,5.,2.5));
#536=CARTESIAN_POINT('',(12.,0.,2.5));
#537=CARTESIAN_POINT('',(5.55111512312578E-16,5.,2.5));
#538=CARTESIAN_POINT('',(0.,5.,2.5));
#539=CARTESIAN_POINT('',(5.55111512312578E-16,0.,2.5));
#540=CARTESIAN_POINT('Origin',(6.,5.,-1.5));
#541=CARTESIAN_POINT('',(-4.44089209850063E-15,5.,-5.49999999999999));
#542=CARTESIAN_POINT('',(12.,5.,2.5));
#543=CARTESIAN_POINT('Origin',(6.,0.,-1.5));
#544=CARTESIAN_POINT('',(12.,0.,2.5));
#545=CARTESIAN_POINT('',(-4.44089209850063E-15,0.,-5.49999999999999));
#546=CARTESIAN_POINT('Origin',(-34.6690475583121,-39.,-1.5));
#547=CARTESIAN_POINT('',(12.,-39.,-0.716500000000001));
#548=CARTESIAN_POINT('Origin',(12.,-39.,-1.5));
#549=CARTESIAN_POINT('',(10.,-39.,-0.716500000000001));
#550=CARTESIAN_POINT('',(-34.6690475583121,-39.,-0.716500000000001));
#551=CARTESIAN_POINT('',(9.92251548754113,-38.2165,-1.5));
#552=CARTESIAN_POINT('Ctrl Pts',(9.92251548754113,-38.2165,-1.5));
#553=CARTESIAN_POINT('Ctrl Pts',(9.92251548754113,-38.2165,-1.40134462738808));
#554=CARTESIAN_POINT('Ctrl Pts',(9.92662324709529,-38.2362686541451,-1.2962931495909));
#555=CARTESIAN_POINT('Ctrl Pts',(9.94134719604501,-38.316305663524,-1.1033337213226));
#556=CARTESIAN_POINT('Ctrl Pts',(9.95173845988057,-38.3765605757273,-1.01540309815342));
#557=CARTESIAN_POINT('Ctrl Pts',(9.97115542943792,-38.5153995248951,-0.876564148985585));
#558=CARTESIAN_POINT('Ctrl Pts',(9.98145900425772,-38.603331667705,-0.816306437346615));
#559=CARTESIAN_POINT('Ctrl Pts',(9.99598128109052,-38.796296369506,-0.736267396558254));
#560=CARTESIAN_POINT('Ctrl Pts',(10.,-38.9013497053876,-0.716500000000001));
#561=CARTESIAN_POINT('Ctrl Pts',(10.,-39.,-0.716500000000001));
#562=CARTESIAN_POINT('Ctrl Pts',(10.,-39.,-0.716500000000001));
#563=CARTESIAN_POINT('Ctrl Pts',(10.,-39.0986502946124,-0.716500000000001));
#564=CARTESIAN_POINT('Ctrl Pts',(9.99598128109052,-39.203703630494,-0.736267396558255));
#565=CARTESIAN_POINT('Ctrl Pts',(9.98145900425772,-39.396668332295,-0.816306437346615));
#566=CARTESIAN_POINT('Ctrl Pts',(9.97115542943792,-39.4846004751049,-0.876564148985585));
#567=CARTESIAN_POINT('Ctrl Pts',(9.95173845988057,-39.6234394242727,-1.01540309815342));
#568=CARTESIAN_POINT('Ctrl Pts',(9.94134719604501,-39.683694336476,-1.1033337213226));
#569=CARTESIAN_POINT('Ctrl Pts',(9.92662324709529,-39.7637313458549,-1.2962931495909));
#570=CARTESIAN_POINT('Ctrl Pts',(9.92251548754113,-39.7835,-1.40134462738808));
#571=CARTESIAN_POINT('Ctrl Pts',(9.92251548754113,-39.7835,-1.59865537261193));
#572=CARTESIAN_POINT('Ctrl Pts',(9.92662324709529,-39.7637313458549,-1.70370685040911));
#573=CARTESIAN_POINT('Ctrl Pts',(9.94134719604501,-39.683694336476,-1.8966662786774));
#574=CARTESIAN_POINT('Ctrl Pts',(9.95173845988057,-39.6234394242727,-1.98459690184659));
#575=CARTESIAN_POINT('Ctrl Pts',(9.97115542943792,-39.4846004751049,-2.12343585101442));
#576=CARTESIAN_POINT('Ctrl Pts',(9.98145900425772,-39.396668332295,-2.18369356265339));
#577=CARTESIAN_POINT('Ctrl Pts',(9.99598128109052,-39.203703630494,-2.26373260344175));
#578=CARTESIAN_POINT('Ctrl Pts',(10.,-39.0986502946124,-2.2835));
#579=CARTESIAN_POINT('Ctrl Pts',(10.,-38.9013497053876,-2.2835));
#580=CARTESIAN_POINT('Ctrl Pts',(9.99598128109052,-38.796296369506,-2.26373260344175));
#581=CARTESIAN_POINT('Ctrl Pts',(9.98145900425772,-38.603331667705,-2.18369356265339));
#582=CARTESIAN_POINT('Ctrl Pts',(9.97115542943792,-38.5153995248951,-2.12343585101442));
#583=CARTESIAN_POINT('Ctrl Pts',(9.95173845988057,-38.3765605757273,-1.98459690184659));
#584=CARTESIAN_POINT('Ctrl Pts',(9.94134719604501,-38.316305663524,-1.8966662786774));
#585=CARTESIAN_POINT('Ctrl Pts',(9.92662324709529,-38.2362686541451,-1.70370685040911));
#586=CARTESIAN_POINT('Ctrl Pts',(9.92251548754113,-38.2165,-1.59865537261193));
#587=CARTESIAN_POINT('Ctrl Pts',(9.92251548754113,-38.2165,-1.5));
#588=CARTESIAN_POINT('Origin',(6.,-39.,-46.6690475583121));
#589=CARTESIAN_POINT('',(2.,-39.,-46.6690475583121));
#590=CARTESIAN_POINT('Origin',(0.,-45.,-1.11022302462516E-15));
#591=CARTESIAN_POINT('',(0.,-45.,-1.11022302462516E-15));
#592=CARTESIAN_POINT('',(12.,-45.,-1.11022302462516E-15));
#593=CARTESIAN_POINT('Origin',(12.,-22.5,-1.5));
#594=CARTESIAN_POINT('Origin',(0.,-22.5,-1.5));
#595=UNCERTAINTY_MEASURE_WITH_UNIT(LENGTH_MEASURE(0.01),#599,
'DISTANCE_ACCURACY_VALUE',
'Maximum model space distance between geometric entities at asserted c
onnectivities');
#596=UNCERTAINTY_MEASURE_WITH_UNIT(LENGTH_MEASURE(0.01),#599,
'DISTANCE_ACCURACY_VALUE',
'Maximum model space distance between geometric entities at asserted c
onnectivities');
#597=(
GEOMETRIC_REPRESENTATION_CONTEXT(3)
GLOBAL_UNCERTAINTY_ASSIGNED_CONTEXT((#595))
GLOBAL_UNIT_ASSIGNED_CONTEXT((#599,#601,#602))
REPRESENTATION_CONTEXT('','3D')
);
#598=(
GEOMETRIC_REPRESENTATION_CONTEXT(3)
GLOBAL_UNCERTAINTY_ASSIGNED_CONTEXT((#596))
GLOBAL_UNIT_ASSIGNED_CONTEXT((#599,#601,#602))
REPRESENTATION_CONTEXT('','3D')
);
#599=(
LENGTH_UNIT()
NAMED_UNIT(*)
SI_UNIT(.MILLI.,.METRE.)
);
#600=(
LENGTH_UNIT()
NAMED_UNIT(*)
SI_UNIT(.CENTI.,.METRE.)
);
#601=(
NAMED_UNIT(*)
PLANE_ANGLE_UNIT()
SI_UNIT($,.RADIAN.)
);
#602=(
NAMED_UNIT(*)
SI_UNIT($,.STERADIAN.)
SOLID_ANGLE_UNIT()
);
#603=SHAPE_DEFINITION_REPRESENTATION(#604,#605);
#604=PRODUCT_DEFINITION_SHAPE('',$,#607);
#605=SHAPE_REPRESENTATION('',(#357),#597);
#606=PRODUCT_DEFINITION_CONTEXT('part definition',#611,'design');
#607=PRODUCT_DEFINITION('CO-MEC-GSE-0058-01','Magnet holder',#608,#606);
#608=PRODUCT_DEFINITION_FORMATION('A',$,#613);
#609=PRODUCT_RELATED_PRODUCT_CATEGORY('Magnet holder','Magnet holder',(#613));
#610=APPLICATION_PROTOCOL_DEFINITION('international standard',
'automotive_design',2009,#611);
#611=APPLICATION_CONTEXT(
'Core Data for Automotive Mechanical Design Process');
#612=PRODUCT_CONTEXT('part definition',#611,'mechanical');
#613=PRODUCT('CO-MEC-GSE-0058-01','Magnet holder',$,(#612));
#614=PRESENTATION_STYLE_ASSIGNMENT((#615));
#615=SURFACE_STYLE_USAGE(.BOTH.,#618);
#616=SURFACE_STYLE_RENDERING_WITH_PROPERTIES($,#622,(#617));
#617=SURFACE_STYLE_TRANSPARENT(0.);
#618=SURFACE_SIDE_STYLE('',(#619,#616));
#619=SURFACE_STYLE_FILL_AREA(#620);
#620=FILL_AREA_STYLE('',(#621));
#621=FILL_AREA_STYLE_COLOUR('',#622);
#622=COLOUR_RGB('',0.996078431372549,0.996078431372549,1.);
ENDSEC;
END-ISO-10303-21;
