ISO-10303-21;
HEADER;
/* Generated by software containing ST-Developer
 * from STEP Tools, Inc. (www.steptools.com) 
 */

FILE_DESCRIPTION(
/* description */ ('Clampe pivot ext\X\E9rieure'),
/* implementation_level */ '2;1');

FILE_NAME(
/* name */ 
'C:\\VAULT_LOCAL\\WORKSPACE\\05_GSE\\MGSE\\GSE-052-MGSE-Torsional Thru
st Balance V2\\00. Drawings & steps\\CO-MEC-GSE-0059-01.stp',
/* time_stamp */ '2022-11-18T10:21:04+01:00',
/* author */ ('exolab-5mv6l'),
/* organization */ ('EXOTRAIL'),
/* preprocessor_version */ 'ST-DEVELOPER v18.1',
/* originating_system */ 'Autodesk Inventor 2022',
/* authorisation */ '');

FILE_SCHEMA (('AUTOMOTIVE_DESIGN { 1 0 10303 214 3 1 1 }'));
ENDSEC;

DATA;
#10=MECHANICAL_DESIGN_GEOMETRIC_PRESENTATION_REPRESENTATION('',(#13),#618);
#11=SHAPE_REPRESENTATION_RELATIONSHIP('SRR','None',#625,#12);
#12=ADVANCED_BREP_SHAPE_REPRESENTATION('',(#14),#617);
#13=STYLED_ITEM('',(#634),#14);
#14=MANIFOLD_SOLID_BREP('Solide1',#361);
#15=FACE_BOUND('',#54,.T.);
#16=FACE_BOUND('',#56,.T.);
#17=FACE_BOUND('',#57,.T.);
#18=FACE_BOUND('',#67,.T.);
#19=FACE_BOUND('',#70,.T.);
#20=FACE_BOUND('',#74,.T.);
#21=FACE_BOUND('',#76,.T.);
#22=FACE_BOUND('',#77,.T.);
#23=PLANE('',#387);
#24=PLANE('',#389);
#25=PLANE('',#396);
#26=PLANE('',#398);
#27=PLANE('',#409);
#28=PLANE('',#410);
#29=PLANE('',#411);
#30=PLANE('',#412);
#31=PLANE('',#413);
#32=PLANE('',#414);
#33=PLANE('',#415);
#34=FACE_OUTER_BOUND('',#52,.T.);
#35=FACE_OUTER_BOUND('',#53,.T.);
#36=FACE_OUTER_BOUND('',#55,.T.);
#37=FACE_OUTER_BOUND('',#58,.T.);
#38=FACE_OUTER_BOUND('',#59,.T.);
#39=FACE_OUTER_BOUND('',#60,.T.);
#40=FACE_OUTER_BOUND('',#61,.T.);
#41=FACE_OUTER_BOUND('',#62,.T.);
#42=FACE_OUTER_BOUND('',#63,.T.);
#43=FACE_OUTER_BOUND('',#64,.T.);
#44=FACE_OUTER_BOUND('',#65,.T.);
#45=FACE_OUTER_BOUND('',#66,.T.);
#46=FACE_OUTER_BOUND('',#68,.T.);
#47=FACE_OUTER_BOUND('',#69,.T.);
#48=FACE_OUTER_BOUND('',#71,.T.);
#49=FACE_OUTER_BOUND('',#72,.T.);
#50=FACE_OUTER_BOUND('',#73,.T.);
#51=FACE_OUTER_BOUND('',#75,.T.);
#52=EDGE_LOOP('',(#240,#241,#242,#243));
#53=EDGE_LOOP('',(#244,#245,#246,#247,#248,#249,#250,#251));
#54=EDGE_LOOP('',(#252));
#55=EDGE_LOOP('',(#253,#254,#255,#256,#257,#258,#259,#260));
#56=EDGE_LOOP('',(#261));
#57=EDGE_LOOP('',(#262));
#58=EDGE_LOOP('',(#263,#264,#265,#266));
#59=EDGE_LOOP('',(#267,#268,#269,#270));
#60=EDGE_LOOP('',(#271,#272));
#61=EDGE_LOOP('',(#273,#274));
#62=EDGE_LOOP('',(#275,#276,#277,#278));
#63=EDGE_LOOP('',(#279,#280,#281,#282));
#64=EDGE_LOOP('',(#283,#284,#285,#286));
#65=EDGE_LOOP('',(#287,#288,#289,#290));
#66=EDGE_LOOP('',(#291,#292,#293,#294));
#67=EDGE_LOOP('',(#295));
#68=EDGE_LOOP('',(#296,#297,#298,#299));
#69=EDGE_LOOP('',(#300,#301,#302,#303));
#70=EDGE_LOOP('',(#304));
#71=EDGE_LOOP('',(#305,#306,#307,#308));
#72=EDGE_LOOP('',(#309,#310,#311,#312));
#73=EDGE_LOOP('',(#313,#314,#315,#316,#317,#318,#319,#320));
#74=EDGE_LOOP('',(#321));
#75=EDGE_LOOP('',(#322,#323,#324,#325,#326,#327,#328,#329,#330,#331,#332,
#333));
#76=EDGE_LOOP('',(#334));
#77=EDGE_LOOP('',(#335));
#78=CIRCLE('',#385,10.);
#79=CIRCLE('',#386,10.);
#80=CIRCLE('',#388,2.15);
#81=CIRCLE('',#390,2.4585);
#82=CIRCLE('',#391,2.4585);
#83=CIRCLE('',#393,2.4585);
#84=CIRCLE('',#395,2.4585);
#85=CIRCLE('',#397,4.05);
#86=CIRCLE('',#399,4.05);
#87=CIRCLE('',#401,4.05);
#88=CIRCLE('',#403,4.05);
#89=CIRCLE('',#405,2.15);
#90=CIRCLE('',#407,1.621);
#91=CIRCLE('',#408,1.621);
#92=LINE('',#520,#126);
#93=LINE('',#524,#127);
#94=LINE('',#528,#128);
#95=LINE('',#530,#129);
#96=LINE('',#532,#130);
#97=LINE('',#534,#131);
#98=LINE('',#536,#132);
#99=LINE('',#538,#133);
#100=LINE('',#539,#134);
#101=LINE('',#544,#135);
#102=LINE('',#546,#136);
#103=LINE('',#548,#137);
#104=LINE('',#550,#138);
#105=LINE('',#552,#139);
#106=LINE('',#553,#140);
#107=LINE('',#561,#141);
#108=LINE('',#565,#142);
#109=LINE('',#569,#143);
#110=LINE('',#575,#144);
#111=LINE('',#577,#145);
#112=LINE('',#583,#146);
#113=LINE('',#589,#147);
#114=LINE('',#593,#148);
#115=LINE('',#595,#149);
#116=LINE('',#596,#150);
#117=LINE('',#599,#151);
#118=LINE('',#601,#152);
#119=LINE('',#602,#153);
#120=LINE('',#605,#154);
#121=LINE('',#606,#155);
#122=LINE('',#608,#156);
#123=LINE('',#610,#157);
#124=LINE('',#612,#158);
#125=LINE('',#613,#159);
#126=VECTOR('',#420,10.);
#127=VECTOR('',#423,10.);
#128=VECTOR('',#428,10.);
#129=VECTOR('',#429,10.);
#130=VECTOR('',#430,10.);
#131=VECTOR('',#431,10.);
#132=VECTOR('',#432,10.);
#133=VECTOR('',#433,10.);
#134=VECTOR('',#434,10.);
#135=VECTOR('',#439,10.);
#136=VECTOR('',#440,10.);
#137=VECTOR('',#441,10.);
#138=VECTOR('',#442,10.);
#139=VECTOR('',#443,10.);
#140=VECTOR('',#444,10.);
#141=VECTOR('',#453,2.4585);
#142=VECTOR('',#458,2.4585);
#143=VECTOR('',#461,10.);
#144=VECTOR('',#470,10.);
#145=VECTOR('',#471,10.);
#146=VECTOR('',#480,2.15);
#147=VECTOR('',#487,1.621);
#148=VECTOR('',#492,10.);
#149=VECTOR('',#493,10.);
#150=VECTOR('',#494,10.);
#151=VECTOR('',#497,10.);
#152=VECTOR('',#498,10.);
#153=VECTOR('',#499,10.);
#154=VECTOR('',#502,10.);
#155=VECTOR('',#503,10.);
#156=VECTOR('',#506,10.);
#157=VECTOR('',#509,10.);
#158=VECTOR('',#512,10.);
#159=VECTOR('',#513,10.);
#160=VERTEX_POINT('',#518);
#161=VERTEX_POINT('',#519);
#162=VERTEX_POINT('',#521);
#163=VERTEX_POINT('',#523);
#164=VERTEX_POINT('',#527);
#165=VERTEX_POINT('',#529);
#166=VERTEX_POINT('',#531);
#167=VERTEX_POINT('',#533);
#168=VERTEX_POINT('',#535);
#169=VERTEX_POINT('',#537);
#170=VERTEX_POINT('',#540);
#171=VERTEX_POINT('',#543);
#172=VERTEX_POINT('',#545);
#173=VERTEX_POINT('',#547);
#174=VERTEX_POINT('',#549);
#175=VERTEX_POINT('',#551);
#176=VERTEX_POINT('',#554);
#177=VERTEX_POINT('',#556);
#178=VERTEX_POINT('',#559);
#179=VERTEX_POINT('',#563);
#180=VERTEX_POINT('',#567);
#181=VERTEX_POINT('',#568);
#182=VERTEX_POINT('',#574);
#183=VERTEX_POINT('',#576);
#184=VERTEX_POINT('',#582);
#185=VERTEX_POINT('',#586);
#186=VERTEX_POINT('',#588);
#187=VERTEX_POINT('',#592);
#188=VERTEX_POINT('',#594);
#189=VERTEX_POINT('',#598);
#190=VERTEX_POINT('',#600);
#191=VERTEX_POINT('',#604);
#192=EDGE_CURVE('',#160,#161,#92,.T.);
#193=EDGE_CURVE('',#162,#160,#78,.T.);
#194=EDGE_CURVE('',#163,#162,#93,.T.);
#195=EDGE_CURVE('',#161,#163,#79,.T.);
#196=EDGE_CURVE('',#161,#164,#94,.T.);
#197=EDGE_CURVE('',#164,#165,#95,.T.);
#198=EDGE_CURVE('',#166,#165,#96,.T.);
#199=EDGE_CURVE('',#166,#167,#97,.T.);
#200=EDGE_CURVE('',#167,#168,#98,.T.);
#201=EDGE_CURVE('',#168,#169,#99,.T.);
#202=EDGE_CURVE('',#160,#169,#100,.T.);
#203=EDGE_CURVE('',#170,#170,#80,.T.);
#204=EDGE_CURVE('',#171,#163,#101,.T.);
#205=EDGE_CURVE('',#172,#171,#102,.T.);
#206=EDGE_CURVE('',#173,#172,#103,.T.);
#207=EDGE_CURVE('',#174,#173,#104,.T.);
#208=EDGE_CURVE('',#175,#174,#105,.T.);
#209=EDGE_CURVE('',#164,#175,#106,.T.);
#210=EDGE_CURVE('',#176,#176,#81,.T.);
#211=EDGE_CURVE('',#177,#177,#82,.T.);
#212=EDGE_CURVE('',#178,#178,#83,.T.);
#213=EDGE_CURVE('',#178,#177,#107,.T.);
#214=EDGE_CURVE('',#179,#179,#84,.T.);
#215=EDGE_CURVE('',#179,#176,#108,.T.);
#216=EDGE_CURVE('',#180,#181,#109,.T.);
#217=EDGE_CURVE('',#180,#181,#85,.T.);
#218=EDGE_CURVE('',#167,#168,#86,.T.);
#219=EDGE_CURVE('',#181,#182,#110,.T.);
#220=EDGE_CURVE('',#183,#180,#111,.T.);
#221=EDGE_CURVE('',#182,#183,#87,.T.);
#222=EDGE_CURVE('',#169,#166,#88,.T.);
#223=EDGE_CURVE('',#170,#184,#112,.T.);
#224=EDGE_CURVE('',#184,#184,#89,.T.);
#225=EDGE_CURVE('',#185,#185,#90,.T.);
#226=EDGE_CURVE('',#185,#186,#113,.T.);
#227=EDGE_CURVE('',#186,#186,#91,.T.);
#228=EDGE_CURVE('',#174,#187,#114,.T.);
#229=EDGE_CURVE('',#188,#187,#115,.T.);
#230=EDGE_CURVE('',#175,#188,#116,.T.);
#231=EDGE_CURVE('',#171,#189,#117,.T.);
#232=EDGE_CURVE('',#190,#189,#118,.T.);
#233=EDGE_CURVE('',#172,#190,#119,.T.);
#234=EDGE_CURVE('',#191,#190,#120,.T.);
#235=EDGE_CURVE('',#173,#191,#121,.T.);
#236=EDGE_CURVE('',#187,#191,#122,.T.);
#237=EDGE_CURVE('',#165,#188,#123,.T.);
#238=EDGE_CURVE('',#183,#162,#124,.T.);
#239=EDGE_CURVE('',#189,#182,#125,.T.);
#240=ORIENTED_EDGE('',*,*,#192,.F.);
#241=ORIENTED_EDGE('',*,*,#193,.F.);
#242=ORIENTED_EDGE('',*,*,#194,.F.);
#243=ORIENTED_EDGE('',*,*,#195,.F.);
#244=ORIENTED_EDGE('',*,*,#192,.T.);
#245=ORIENTED_EDGE('',*,*,#196,.T.);
#246=ORIENTED_EDGE('',*,*,#197,.T.);
#247=ORIENTED_EDGE('',*,*,#198,.F.);
#248=ORIENTED_EDGE('',*,*,#199,.T.);
#249=ORIENTED_EDGE('',*,*,#200,.T.);
#250=ORIENTED_EDGE('',*,*,#201,.T.);
#251=ORIENTED_EDGE('',*,*,#202,.F.);
#252=ORIENTED_EDGE('',*,*,#203,.T.);
#253=ORIENTED_EDGE('',*,*,#195,.T.);
#254=ORIENTED_EDGE('',*,*,#204,.F.);
#255=ORIENTED_EDGE('',*,*,#205,.F.);
#256=ORIENTED_EDGE('',*,*,#206,.F.);
#257=ORIENTED_EDGE('',*,*,#207,.F.);
#258=ORIENTED_EDGE('',*,*,#208,.F.);
#259=ORIENTED_EDGE('',*,*,#209,.F.);
#260=ORIENTED_EDGE('',*,*,#196,.F.);
#261=ORIENTED_EDGE('',*,*,#210,.T.);
#262=ORIENTED_EDGE('',*,*,#211,.T.);
#263=ORIENTED_EDGE('',*,*,#212,.F.);
#264=ORIENTED_EDGE('',*,*,#213,.T.);
#265=ORIENTED_EDGE('',*,*,#211,.F.);
#266=ORIENTED_EDGE('',*,*,#213,.F.);
#267=ORIENTED_EDGE('',*,*,#214,.F.);
#268=ORIENTED_EDGE('',*,*,#215,.T.);
#269=ORIENTED_EDGE('',*,*,#210,.F.);
#270=ORIENTED_EDGE('',*,*,#215,.F.);
#271=ORIENTED_EDGE('',*,*,#216,.F.);
#272=ORIENTED_EDGE('',*,*,#217,.T.);
#273=ORIENTED_EDGE('',*,*,#200,.F.);
#274=ORIENTED_EDGE('',*,*,#218,.T.);
#275=ORIENTED_EDGE('',*,*,#219,.F.);
#276=ORIENTED_EDGE('',*,*,#217,.F.);
#277=ORIENTED_EDGE('',*,*,#220,.F.);
#278=ORIENTED_EDGE('',*,*,#221,.F.);
#279=ORIENTED_EDGE('',*,*,#199,.F.);
#280=ORIENTED_EDGE('',*,*,#222,.F.);
#281=ORIENTED_EDGE('',*,*,#201,.F.);
#282=ORIENTED_EDGE('',*,*,#218,.F.);
#283=ORIENTED_EDGE('',*,*,#203,.F.);
#284=ORIENTED_EDGE('',*,*,#223,.T.);
#285=ORIENTED_EDGE('',*,*,#224,.F.);
#286=ORIENTED_EDGE('',*,*,#223,.F.);
#287=ORIENTED_EDGE('',*,*,#225,.F.);
#288=ORIENTED_EDGE('',*,*,#226,.T.);
#289=ORIENTED_EDGE('',*,*,#227,.F.);
#290=ORIENTED_EDGE('',*,*,#226,.F.);
#291=ORIENTED_EDGE('',*,*,#208,.T.);
#292=ORIENTED_EDGE('',*,*,#228,.T.);
#293=ORIENTED_EDGE('',*,*,#229,.F.);
#294=ORIENTED_EDGE('',*,*,#230,.F.);
#295=ORIENTED_EDGE('',*,*,#224,.T.);
#296=ORIENTED_EDGE('',*,*,#205,.T.);
#297=ORIENTED_EDGE('',*,*,#231,.T.);
#298=ORIENTED_EDGE('',*,*,#232,.F.);
#299=ORIENTED_EDGE('',*,*,#233,.F.);
#300=ORIENTED_EDGE('',*,*,#206,.T.);
#301=ORIENTED_EDGE('',*,*,#233,.T.);
#302=ORIENTED_EDGE('',*,*,#234,.F.);
#303=ORIENTED_EDGE('',*,*,#235,.F.);
#304=ORIENTED_EDGE('',*,*,#225,.T.);
#305=ORIENTED_EDGE('',*,*,#207,.T.);
#306=ORIENTED_EDGE('',*,*,#235,.T.);
#307=ORIENTED_EDGE('',*,*,#236,.F.);
#308=ORIENTED_EDGE('',*,*,#228,.F.);
#309=ORIENTED_EDGE('',*,*,#209,.T.);
#310=ORIENTED_EDGE('',*,*,#230,.T.);
#311=ORIENTED_EDGE('',*,*,#237,.F.);
#312=ORIENTED_EDGE('',*,*,#197,.F.);
#313=ORIENTED_EDGE('',*,*,#194,.T.);
#314=ORIENTED_EDGE('',*,*,#238,.F.);
#315=ORIENTED_EDGE('',*,*,#220,.T.);
#316=ORIENTED_EDGE('',*,*,#216,.T.);
#317=ORIENTED_EDGE('',*,*,#219,.T.);
#318=ORIENTED_EDGE('',*,*,#239,.F.);
#319=ORIENTED_EDGE('',*,*,#231,.F.);
#320=ORIENTED_EDGE('',*,*,#204,.T.);
#321=ORIENTED_EDGE('',*,*,#227,.T.);
#322=ORIENTED_EDGE('',*,*,#193,.T.);
#323=ORIENTED_EDGE('',*,*,#202,.T.);
#324=ORIENTED_EDGE('',*,*,#222,.T.);
#325=ORIENTED_EDGE('',*,*,#198,.T.);
#326=ORIENTED_EDGE('',*,*,#237,.T.);
#327=ORIENTED_EDGE('',*,*,#229,.T.);
#328=ORIENTED_EDGE('',*,*,#236,.T.);
#329=ORIENTED_EDGE('',*,*,#234,.T.);
#330=ORIENTED_EDGE('',*,*,#232,.T.);
#331=ORIENTED_EDGE('',*,*,#239,.T.);
#332=ORIENTED_EDGE('',*,*,#221,.T.);
#333=ORIENTED_EDGE('',*,*,#238,.T.);
#334=ORIENTED_EDGE('',*,*,#212,.T.);
#335=ORIENTED_EDGE('',*,*,#214,.T.);
#336=CYLINDRICAL_SURFACE('',#384,10.);
#337=CYLINDRICAL_SURFACE('',#392,2.4585);
#338=CYLINDRICAL_SURFACE('',#394,2.4585);
#339=CYLINDRICAL_SURFACE('',#400,4.05);
#340=CYLINDRICAL_SURFACE('',#402,4.05);
#341=CYLINDRICAL_SURFACE('',#404,2.15);
#342=CYLINDRICAL_SURFACE('',#406,1.621);
#343=ADVANCED_FACE('',(#34),#336,.F.);
#344=ADVANCED_FACE('',(#35,#15),#23,.T.);
#345=ADVANCED_FACE('',(#36,#16,#17),#24,.F.);
#346=ADVANCED_FACE('',(#37),#337,.F.);
#347=ADVANCED_FACE('',(#38),#338,.F.);
#348=ADVANCED_FACE('',(#39),#25,.T.);
#349=ADVANCED_FACE('',(#40),#26,.T.);
#350=ADVANCED_FACE('',(#41),#339,.F.);
#351=ADVANCED_FACE('',(#42),#340,.F.);
#352=ADVANCED_FACE('',(#43),#341,.F.);
#353=ADVANCED_FACE('',(#44),#342,.F.);
#354=ADVANCED_FACE('',(#45,#18),#27,.T.);
#355=ADVANCED_FACE('',(#46),#28,.T.);
#356=ADVANCED_FACE('',(#47,#19),#29,.T.);
#357=ADVANCED_FACE('',(#48),#30,.T.);
#358=ADVANCED_FACE('',(#49),#31,.T.);
#359=ADVANCED_FACE('',(#50,#20),#32,.T.);
#360=ADVANCED_FACE('',(#51,#21,#22),#33,.T.);
#361=CLOSED_SHELL('',(#343,#344,#345,#346,#347,#348,#349,#350,#351,#352,
#353,#354,#355,#356,#357,#358,#359,#360));
#362=DERIVED_UNIT_ELEMENT(#365,1.);
#363=DERIVED_UNIT_ELEMENT(#620,-3.);
#364=DIMENSIONAL_EXPONENTS(1.,0.,0.,0.,0.,0.,0.);
#365=(
CONVERSION_BASED_UNIT('gram',#367)
MASS_UNIT()
NAMED_UNIT(#364)
);
#366=(
MASS_UNIT()
NAMED_UNIT(*)
SI_UNIT(.KILO.,.GRAM.)
);
#367=MASS_MEASURE_WITH_UNIT(MASS_MEASURE(0.001),#366);
#368=DERIVED_UNIT((#362,#363));
#369=MEASURE_REPRESENTATION_ITEM('density measure',
POSITIVE_RATIO_MEASURE(2.7),#368);
#370=PROPERTY_DEFINITION_REPRESENTATION(#375,#372);
#371=PROPERTY_DEFINITION_REPRESENTATION(#376,#373);
#372=REPRESENTATION('material name',(#374),#617);
#373=REPRESENTATION('density',(#369),#617);
#374=DESCRIPTIVE_REPRESENTATION_ITEM('Aluminium 6061','Aluminium 6061');
#375=PROPERTY_DEFINITION('material property','material name',#627);
#376=PROPERTY_DEFINITION('material property','density of part',#627);
#377=DATE_TIME_ROLE('creation_date');
#378=APPLIED_DATE_AND_TIME_ASSIGNMENT(#379,#377,(#627));
#379=DATE_AND_TIME(#380,#381);
#380=CALENDAR_DATE(2022,4,11);
#381=LOCAL_TIME(0,0,0.,#382);
#382=COORDINATED_UNIVERSAL_TIME_OFFSET(0,0,.BEHIND.);
#383=AXIS2_PLACEMENT_3D('placement',#516,#416,#417);
#384=AXIS2_PLACEMENT_3D('',#517,#418,#419);
#385=AXIS2_PLACEMENT_3D('',#522,#421,#422);
#386=AXIS2_PLACEMENT_3D('',#525,#424,#425);
#387=AXIS2_PLACEMENT_3D('',#526,#426,#427);
#388=AXIS2_PLACEMENT_3D('',#541,#435,#436);
#389=AXIS2_PLACEMENT_3D('',#542,#437,#438);
#390=AXIS2_PLACEMENT_3D('',#555,#445,#446);
#391=AXIS2_PLACEMENT_3D('',#557,#447,#448);
#392=AXIS2_PLACEMENT_3D('',#558,#449,#450);
#393=AXIS2_PLACEMENT_3D('',#560,#451,#452);
#394=AXIS2_PLACEMENT_3D('',#562,#454,#455);
#395=AXIS2_PLACEMENT_3D('',#564,#456,#457);
#396=AXIS2_PLACEMENT_3D('',#566,#459,#460);
#397=AXIS2_PLACEMENT_3D('',#570,#462,#463);
#398=AXIS2_PLACEMENT_3D('',#571,#464,#465);
#399=AXIS2_PLACEMENT_3D('',#572,#466,#467);
#400=AXIS2_PLACEMENT_3D('',#573,#468,#469);
#401=AXIS2_PLACEMENT_3D('',#578,#472,#473);
#402=AXIS2_PLACEMENT_3D('',#579,#474,#475);
#403=AXIS2_PLACEMENT_3D('',#580,#476,#477);
#404=AXIS2_PLACEMENT_3D('',#581,#478,#479);
#405=AXIS2_PLACEMENT_3D('',#584,#481,#482);
#406=AXIS2_PLACEMENT_3D('',#585,#483,#484);
#407=AXIS2_PLACEMENT_3D('',#587,#485,#486);
#408=AXIS2_PLACEMENT_3D('',#590,#488,#489);
#409=AXIS2_PLACEMENT_3D('',#591,#490,#491);
#410=AXIS2_PLACEMENT_3D('',#597,#495,#496);
#411=AXIS2_PLACEMENT_3D('',#603,#500,#501);
#412=AXIS2_PLACEMENT_3D('',#607,#504,#505);
#413=AXIS2_PLACEMENT_3D('',#609,#507,#508);
#414=AXIS2_PLACEMENT_3D('',#611,#510,#511);
#415=AXIS2_PLACEMENT_3D('',#614,#514,#515);
#416=DIRECTION('axis',(0.,0.,1.));
#417=DIRECTION('refdir',(1.,0.,0.));
#418=DIRECTION('center_axis',(0.,0.,1.));
#419=DIRECTION('ref_axis',(-1.83697019872103E-16,-1.,0.));
#420=DIRECTION('',(0.,0.,-1.));
#421=DIRECTION('center_axis',(0.,0.,-1.));
#422=DIRECTION('ref_axis',(1.,0.,0.));
#423=DIRECTION('',(0.,0.,1.));
#424=DIRECTION('center_axis',(0.,0.,1.));
#425=DIRECTION('ref_axis',(1.,0.,0.));
#426=DIRECTION('center_axis',(1.,0.,0.));
#427=DIRECTION('ref_axis',(0.,1.,0.));
#428=DIRECTION('',(0.,1.,0.));
#429=DIRECTION('',(0.,0.,1.));
#430=DIRECTION('',(0.,1.,0.));
#431=DIRECTION('',(0.,0.,-1.));
#432=DIRECTION('',(0.,-1.,0.));
#433=DIRECTION('',(0.,0.,1.));
#434=DIRECTION('',(0.,1.,0.));
#435=DIRECTION('center_axis',(-1.,0.,0.));
#436=DIRECTION('ref_axis',(0.,0.,-1.));
#437=DIRECTION('center_axis',(0.,0.,1.));
#438=DIRECTION('ref_axis',(1.,0.,0.));
#439=DIRECTION('',(1.24059012221372E-16,-1.,0.));
#440=DIRECTION('',(-1.,-1.225073682345E-15,0.));
#441=DIRECTION('',(-5.55111512312578E-17,1.,0.));
#442=DIRECTION('',(1.,0.,0.));
#443=DIRECTION('',(0.,-1.,0.));
#444=DIRECTION('',(-1.,1.225073682345E-15,0.));
#445=DIRECTION('center_axis',(0.,0.,1.));
#446=DIRECTION('ref_axis',(1.,0.,0.));
#447=DIRECTION('center_axis',(0.,0.,1.));
#448=DIRECTION('ref_axis',(1.,0.,0.));
#449=DIRECTION('center_axis',(0.,0.,1.));
#450=DIRECTION('ref_axis',(1.,0.,0.));
#451=DIRECTION('center_axis',(0.,0.,-1.));
#452=DIRECTION('ref_axis',(1.,0.,0.));
#453=DIRECTION('',(0.,0.,-1.));
#454=DIRECTION('center_axis',(0.,0.,1.));
#455=DIRECTION('ref_axis',(1.,0.,0.));
#456=DIRECTION('center_axis',(0.,0.,-1.));
#457=DIRECTION('ref_axis',(1.,0.,0.));
#458=DIRECTION('',(0.,0.,-1.));
#459=DIRECTION('center_axis',(0.,0.,1.));
#460=DIRECTION('ref_axis',(1.,0.,0.));
#461=DIRECTION('',(-1.24059012221372E-16,1.,0.));
#462=DIRECTION('center_axis',(0.,0.,1.));
#463=DIRECTION('ref_axis',(1.,0.,0.));
#464=DIRECTION('center_axis',(0.,0.,1.));
#465=DIRECTION('ref_axis',(1.,0.,0.));
#466=DIRECTION('center_axis',(0.,0.,1.));
#467=DIRECTION('ref_axis',(1.,0.,0.));
#468=DIRECTION('center_axis',(0.,0.,1.));
#469=DIRECTION('ref_axis',(1.,0.,0.));
#470=DIRECTION('',(0.,0.,1.));
#471=DIRECTION('',(0.,0.,-1.));
#472=DIRECTION('center_axis',(0.,0.,-1.));
#473=DIRECTION('ref_axis',(1.,0.,0.));
#474=DIRECTION('center_axis',(0.,0.,1.));
#475=DIRECTION('ref_axis',(-1.,1.22464679914735E-16,0.));
#476=DIRECTION('center_axis',(0.,0.,-1.));
#477=DIRECTION('ref_axis',(1.,0.,0.));
#478=DIRECTION('center_axis',(1.,-1.18952466924124E-16,0.));
#479=DIRECTION('ref_axis',(0.,0.,-1.));
#480=DIRECTION('',(-1.,1.18952466924124E-16,0.));
#481=DIRECTION('center_axis',(1.,0.,0.));
#482=DIRECTION('ref_axis',(0.,0.,-1.));
#483=DIRECTION('center_axis',(1.,5.55111512312578E-17,0.));
#484=DIRECTION('ref_axis',(0.,0.,-1.));
#485=DIRECTION('center_axis',(-1.,-5.55111512312578E-17,0.));
#486=DIRECTION('ref_axis',(0.,0.,-1.));
#487=DIRECTION('',(-1.,-5.55111512312578E-17,0.));
#488=DIRECTION('center_axis',(1.,1.24059012221372E-16,0.));
#489=DIRECTION('ref_axis',(0.,0.,-1.));
#490=DIRECTION('center_axis',(-1.,0.,0.));
#491=DIRECTION('ref_axis',(0.,-1.,0.));
#492=DIRECTION('',(0.,0.,1.));
#493=DIRECTION('',(0.,-1.,0.));
#494=DIRECTION('',(0.,0.,1.));
#495=DIRECTION('center_axis',(-1.225073682345E-15,1.,0.));
#496=DIRECTION('ref_axis',(-1.,-1.225073682345E-15,0.));
#497=DIRECTION('',(0.,0.,1.));
#498=DIRECTION('',(-1.,-1.225073682345E-15,0.));
#499=DIRECTION('',(0.,0.,1.));
#500=DIRECTION('center_axis',(1.,5.55111512312578E-17,0.));
#501=DIRECTION('ref_axis',(-5.55111512312578E-17,1.,0.));
#502=DIRECTION('',(-5.55111512312578E-17,1.,0.));
#503=DIRECTION('',(0.,0.,1.));
#504=DIRECTION('center_axis',(0.,-1.,0.));
#505=DIRECTION('ref_axis',(1.,0.,0.));
#506=DIRECTION('',(1.,0.,0.));
#507=DIRECTION('center_axis',(1.225073682345E-15,1.,0.));
#508=DIRECTION('ref_axis',(-1.,1.225073682345E-15,0.));
#509=DIRECTION('',(-1.,1.225073682345E-15,0.));
#510=DIRECTION('center_axis',(-1.,-1.24059012221372E-16,0.));
#511=DIRECTION('ref_axis',(1.24059012221372E-16,-1.,0.));
#512=DIRECTION('',(1.24059012221372E-16,-1.,0.));
#513=DIRECTION('',(1.24059012221372E-16,-1.,0.));
#514=DIRECTION('center_axis',(0.,0.,1.));
#515=DIRECTION('ref_axis',(1.,0.,0.));
#516=CARTESIAN_POINT('',(0.,0.,0.));
#517=CARTESIAN_POINT('Origin',(-1.14631350289928E-30,6.99999999999998,-79.186930158572));
#518=CARTESIAN_POINT('',(-0.500000000000002,16.9874921777191,6.5));
#519=CARTESIAN_POINT('',(-0.500000000000002,16.9874921777191,-3.33066907387547E-15));
#520=CARTESIAN_POINT('',(-0.500000000000002,16.9874921777191,-79.186930158572));
#521=CARTESIAN_POINT('',(0.500000000000001,16.9874921777191,6.5));
#522=CARTESIAN_POINT('Origin',(-1.14631350289928E-30,6.99999999999998,6.5));
#523=CARTESIAN_POINT('',(0.500000000000001,16.9874921777191,-3.33066907387547E-15));
#524=CARTESIAN_POINT('',(0.500000000000001,16.9874921777191,-79.186930158572));
#525=CARTESIAN_POINT('Origin',(-1.14631350289928E-30,6.99999999999998,0.));
#526=CARTESIAN_POINT('Origin',(-0.500000000000002,6.99999999999998,0.));
#527=CARTESIAN_POINT('',(-0.500000000000002,40.,0.));
#528=CARTESIAN_POINT('',(-0.500000000000002,6.99999999999998,0.));
#529=CARTESIAN_POINT('',(-0.500000000000002,40.,6.5));
#530=CARTESIAN_POINT('',(-0.500000000000002,40.,0.));
#531=CARTESIAN_POINT('',(-0.500000000000002,30.0190172928217,6.5));
#532=CARTESIAN_POINT('',(-0.500000000000002,6.99999999999998,6.5));
#533=CARTESIAN_POINT('',(-0.500000000000002,30.0190172928217,1.));
#534=CARTESIAN_POINT('',(-0.500000000000002,30.0190172928217,3.75));
#535=CARTESIAN_POINT('',(-0.500000000000002,21.9809827071783,1.));
#536=CARTESIAN_POINT('',(-0.500000000000002,16.5,1.));
#537=CARTESIAN_POINT('',(-0.500000000000002,21.9809827071783,6.5));
#538=CARTESIAN_POINT('',(-0.500000000000002,21.9809827071783,3.75));
#539=CARTESIAN_POINT('',(-0.500000000000002,6.99999999999998,6.5));
#540=CARTESIAN_POINT('',(-0.500000000000007,36.,5.4));
#541=CARTESIAN_POINT('Origin',(-0.500000000000007,36.,3.25));
#542=CARTESIAN_POINT('Origin',(2.22044604925031E-15,0.,0.));
#543=CARTESIAN_POINT('',(0.499999999999998,40.,0.));
#544=CARTESIAN_POINT('',(0.499999999999998,40.,0.));
#545=CARTESIAN_POINT('',(15.,40.,0.));
#546=CARTESIAN_POINT('',(15.,40.,0.));
#547=CARTESIAN_POINT('',(15.,-40.,0.));
#548=CARTESIAN_POINT('',(15.,-40.,0.));
#549=CARTESIAN_POINT('',(-15.,-40.,0.));
#550=CARTESIAN_POINT('',(-15.,-40.,0.));
#551=CARTESIAN_POINT('',(-15.,40.,0.));
#552=CARTESIAN_POINT('',(-15.,40.,0.));
#553=CARTESIAN_POINT('',(-0.500000000000003,40.,0.));
#554=CARTESIAN_POINT('',(-2.4585,-30.,0.));
#555=CARTESIAN_POINT('Origin',(0.,-30.,0.));
#556=CARTESIAN_POINT('',(-2.45850000000002,-15.,0.));
#557=CARTESIAN_POINT('Origin',(-1.8376105235175E-14,-15.,0.));
#558=CARTESIAN_POINT('Origin',(-1.8376105235175E-14,-15.,-79.186930158572));
#559=CARTESIAN_POINT('',(-2.45850000000002,-15.,6.5));
#560=CARTESIAN_POINT('Origin',(-1.8376105235175E-14,-15.,6.5));
#561=CARTESIAN_POINT('',(-2.45850000000002,-15.,-79.186930158572));
#562=CARTESIAN_POINT('Origin',(0.,-30.,-79.186930158572));
#563=CARTESIAN_POINT('',(-2.4585,-30.,6.5));
#564=CARTESIAN_POINT('Origin',(0.,-30.,6.5));
#565=CARTESIAN_POINT('',(-2.4585,-30.,-79.186930158572));
#566=CARTESIAN_POINT('Origin',(-3.19189119579733E-15,26.,1.));
#567=CARTESIAN_POINT('',(0.5,21.9809827071783,1.));
#568=CARTESIAN_POINT('',(0.499999999999999,30.0190172928217,1.));
#569=CARTESIAN_POINT('',(0.499999999999999,33.,1.));
#570=CARTESIAN_POINT('Origin',(-3.19189119579733E-15,26.,1.));
#571=CARTESIAN_POINT('Origin',(-3.19189119579733E-15,26.,1.));
#572=CARTESIAN_POINT('Origin',(-3.19189119579733E-15,26.,1.));
#573=CARTESIAN_POINT('Origin',(-3.19189119579733E-15,26.,3.75));
#574=CARTESIAN_POINT('',(0.499999999999999,30.0190172928217,6.5));
#575=CARTESIAN_POINT('',(0.499999999999999,30.0190172928217,3.75));
#576=CARTESIAN_POINT('',(0.5,21.9809827071783,6.5));
#577=CARTESIAN_POINT('',(0.5,21.9809827071783,3.75));
#578=CARTESIAN_POINT('Origin',(-3.19189119579733E-15,26.,6.5));
#579=CARTESIAN_POINT('Origin',(-3.19189119579733E-15,26.,3.75));
#580=CARTESIAN_POINT('Origin',(-3.19189119579733E-15,26.,6.5));
#581=CARTESIAN_POINT('Origin',(-86.186930158572,36.,3.25));
#582=CARTESIAN_POINT('',(-15.,36.,5.4));
#583=CARTESIAN_POINT('',(-86.186930158572,36.,5.4));
#584=CARTESIAN_POINT('Origin',(-15.,36.,3.25));
#585=CARTESIAN_POINT('Origin',(-70.686930158572,36.,3.25));
#586=CARTESIAN_POINT('',(15.,36.,4.871));
#587=CARTESIAN_POINT('Origin',(15.,36.,3.25));
#588=CARTESIAN_POINT('',(0.499999999999998,36.,4.871));
#589=CARTESIAN_POINT('',(-70.686930158572,36.,4.871));
#590=CARTESIAN_POINT('Origin',(0.499999999999998,36.,3.25));
#591=CARTESIAN_POINT('Origin',(-15.,40.,0.));
#592=CARTESIAN_POINT('',(-15.,-40.,6.5));
#593=CARTESIAN_POINT('',(-15.,-40.,0.));
#594=CARTESIAN_POINT('',(-15.,40.,6.5));
#595=CARTESIAN_POINT('',(-15.,40.,6.5));
#596=CARTESIAN_POINT('',(-15.,40.,0.));
#597=CARTESIAN_POINT('Origin',(15.,40.,0.));
#598=CARTESIAN_POINT('',(0.499999999999998,40.,6.5));
#599=CARTESIAN_POINT('',(0.499999999999998,40.,0.));
#600=CARTESIAN_POINT('',(15.,40.,6.5));
#601=CARTESIAN_POINT('',(15.,40.,6.5));
#602=CARTESIAN_POINT('',(15.,40.,0.));
#603=CARTESIAN_POINT('Origin',(15.,-40.,0.));
#604=CARTESIAN_POINT('',(15.,-40.,6.5));
#605=CARTESIAN_POINT('',(15.,-40.,6.5));
#606=CARTESIAN_POINT('',(15.,-40.,0.));
#607=CARTESIAN_POINT('Origin',(-15.,-40.,0.));
#608=CARTESIAN_POINT('',(-15.,-40.,6.5));
#609=CARTESIAN_POINT('Origin',(-0.500000000000002,40.,0.));
#610=CARTESIAN_POINT('',(-0.500000000000003,40.,6.5));
#611=CARTESIAN_POINT('Origin',(0.499999999999998,40.,0.));
#612=CARTESIAN_POINT('',(0.499999999999998,40.,6.5));
#613=CARTESIAN_POINT('',(0.499999999999998,40.,6.5));
#614=CARTESIAN_POINT('Origin',(2.22044604925031E-15,0.,6.5));
#615=UNCERTAINTY_MEASURE_WITH_UNIT(LENGTH_MEASURE(0.01),#619,
'DISTANCE_ACCURACY_VALUE',
'Maximum model space distance between geometric entities at asserted c
onnectivities');
#616=UNCERTAINTY_MEASURE_WITH_UNIT(LENGTH_MEASURE(0.01),#619,
'DISTANCE_ACCURACY_VALUE',
'Maximum model space distance between geometric entities at asserted c
onnectivities');
#617=(
GEOMETRIC_REPRESENTATION_CONTEXT(3)
GLOBAL_UNCERTAINTY_ASSIGNED_CONTEXT((#615))
GLOBAL_UNIT_ASSIGNED_CONTEXT((#619,#621,#622))
REPRESENTATION_CONTEXT('','3D')
);
#618=(
GEOMETRIC_REPRESENTATION_CONTEXT(3)
GLOBAL_UNCERTAINTY_ASSIGNED_CONTEXT((#616))
GLOBAL_UNIT_ASSIGNED_CONTEXT((#619,#621,#622))
REPRESENTATION_CONTEXT('','3D')
);
#619=(
LENGTH_UNIT()
NAMED_UNIT(*)
SI_UNIT(.MILLI.,.METRE.)
);
#620=(
LENGTH_UNIT()
NAMED_UNIT(*)
SI_UNIT(.CENTI.,.METRE.)
);
#621=(
NAMED_UNIT(*)
PLANE_ANGLE_UNIT()
SI_UNIT($,.RADIAN.)
);
#622=(
NAMED_UNIT(*)
SI_UNIT($,.STERADIAN.)
SOLID_ANGLE_UNIT()
);
#623=SHAPE_DEFINITION_REPRESENTATION(#624,#625);
#624=PRODUCT_DEFINITION_SHAPE('',$,#627);
#625=SHAPE_REPRESENTATION('',(#383),#617);
#626=PRODUCT_DEFINITION_CONTEXT('part definition',#631,'design');
#627=PRODUCT_DEFINITION('CO-MEC-GSE-0059-01(A) (Flexpivot clamp fixed)',
'CO-MEC-GSE-0059-01(A) (Flexpivot clamp fixed)',#628,#626);
#628=PRODUCT_DEFINITION_FORMATION('A',$,#633);
#629=PRODUCT_RELATED_PRODUCT_CATEGORY(
'CO-MEC-GSE-0059-01(A) (Flexpivot clamp fixed)',
'CO-MEC-GSE-0059-01(A) (Flexpivot clamp fixed)',(#633));
#630=APPLICATION_PROTOCOL_DEFINITION('international standard',
'automotive_design',2009,#631);
#631=APPLICATION_CONTEXT(
'Core Data for Automotive Mechanical Design Process');
#632=PRODUCT_CONTEXT('part definition',#631,'mechanical');
#633=PRODUCT('CO-MEC-GSE-0059-01(A) (Flexpivot clamp fixed)',
'CO-MEC-GSE-0059-01(A) (Flexpivot clamp fixed)',
'Clampe pivot ext\X\E9rieure',(#632));
#634=PRESENTATION_STYLE_ASSIGNMENT((#635));
#635=SURFACE_STYLE_USAGE(.BOTH.,#638);
#636=SURFACE_STYLE_RENDERING_WITH_PROPERTIES($,#642,(#637));
#637=SURFACE_STYLE_TRANSPARENT(0.);
#638=SURFACE_SIDE_STYLE('',(#639,#636));
#639=SURFACE_STYLE_FILL_AREA(#640);
#640=FILL_AREA_STYLE('',(#641));
#641=FILL_AREA_STYLE_COLOUR('',#642);
#642=COLOUR_RGB('',0.996078431372549,0.996078431372549,1.);
ENDSEC;
END-ISO-10303-21;
