ISO-10303-21;
HEADER;
/* Generated by software containing ST-Developer
 * from STEP Tools, Inc. (www.steptools.com) 
 */

FILE_DESCRIPTION(
/* description */ (''),
/* implementation_level */ '2;1');

FILE_NAME(
/* name */ 'support comparateur.stp',
/* time_stamp */ '2022-11-21T11:16:10+01:00',
/* author */ ('ethomas'),
/* organization */ (''),
/* preprocessor_version */ 'ST-DEVELOPER v19.2',
/* originating_system */ 'Autodesk Inventor 2023',
/* authorisation */ '');

FILE_SCHEMA (('AUTOMOTIVE_DESIGN { 1 0 10303 214 3 1 1 }'));
ENDSEC;

DATA;
#10=MECHANICAL_DESIGN_GEOMETRIC_PRESENTATION_REPRESENTATION('',(#193,#194,
#195,#196,#197),#390);
#11=SHAPE_REPRESENTATION_RELATIONSHIP('SRR','None',#397,#12);
#12=ADVANCED_BREP_SHAPE_REPRESENTATION('',(#13),#389);
#13=MANIFOLD_SOLID_BREP('Solide1',#208);
#14=PLANE('',#242);
#15=PLANE('',#243);
#16=PLANE('',#244);
#17=PLANE('',#245);
#18=PLANE('',#246);
#19=PLANE('',#247);
#20=FACE_BOUND('',#40,.T.);
#21=FACE_BOUND('',#44,.T.);
#22=FACE_BOUND('',#47,.T.);
#23=FACE_BOUND('',#50,.T.);
#24=FACE_BOUND('',#51,.T.);
#25=FACE_BOUND('',#52,.T.);
#26=FACE_BOUND('',#54,.T.);
#27=FACE_BOUND('',#55,.T.);
#28=FACE_OUTER_BOUND('',#38,.T.);
#29=FACE_OUTER_BOUND('',#39,.T.);
#30=FACE_OUTER_BOUND('',#41,.T.);
#31=FACE_OUTER_BOUND('',#42,.T.);
#32=FACE_OUTER_BOUND('',#43,.T.);
#33=FACE_OUTER_BOUND('',#45,.T.);
#34=FACE_OUTER_BOUND('',#46,.T.);
#35=FACE_OUTER_BOUND('',#48,.T.);
#36=FACE_OUTER_BOUND('',#49,.T.);
#37=FACE_OUTER_BOUND('',#53,.T.);
#38=EDGE_LOOP('',(#139,#140,#141,#142,#143));
#39=EDGE_LOOP('',(#144,#145,#146,#147));
#40=EDGE_LOOP('',(#148,#149));
#41=EDGE_LOOP('',(#150,#151,#152,#153));
#42=EDGE_LOOP('',(#154,#155,#156,#157));
#43=EDGE_LOOP('',(#158,#159,#160,#161));
#44=EDGE_LOOP('',(#162));
#45=EDGE_LOOP('',(#163,#164,#165,#166));
#46=EDGE_LOOP('',(#167,#168,#169,#170));
#47=EDGE_LOOP('',(#171));
#48=EDGE_LOOP('',(#172,#173,#174,#175));
#49=EDGE_LOOP('',(#176,#177,#178,#179));
#50=EDGE_LOOP('',(#180));
#51=EDGE_LOOP('',(#181));
#52=EDGE_LOOP('',(#182));
#53=EDGE_LOOP('',(#183,#184,#185,#186));
#54=EDGE_LOOP('',(#187));
#55=EDGE_LOOP('',(#188));
#56=B_SPLINE_CURVE_WITH_KNOTS('',3,(#307,#308,#309,#310,#311,#312,#313,
#314,#315,#316),.UNSPECIFIED.,.F.,.F.,(4,2,2,2,4),(0.,0.0618742078368844,
0.123748415673769,0.185556382934796,0.247364350195823),.UNSPECIFIED.);
#57=B_SPLINE_CURVE_WITH_KNOTS('',3,(#317,#318,#319,#320,#321,#322,#323,
#324,#325,#326,#327,#328,#329,#330,#331,#332,#333,#334,#335,#336,#337,#338,
#339,#340,#341,#342),.UNSPECIFIED.,.F.,.F.,(4,2,2,2,2,2,2,2,2,2,2,2,4),
(0.247364350195823,0.309172317456851,0.370980284717878,0.432854492554762,
0.494728700391647,0.556602908228531,0.618477116065415,0.680285083326443,
0.74209305058747,0.803901017848497,0.865708985109524,0.927583192946409,
0.989457400783293),.UNSPECIFIED.);
#58=LINE('',#305,#74);
#59=LINE('',#347,#75);
#60=LINE('',#353,#76);
#61=LINE('',#359,#77);
#62=LINE('',#364,#78);
#63=LINE('',#366,#79);
#64=LINE('',#368,#80);
#65=LINE('',#369,#81);
#66=LINE('',#372,#82);
#67=LINE('',#374,#83);
#68=LINE('',#375,#84);
#69=LINE('',#378,#85);
#70=LINE('',#380,#86);
#71=LINE('',#381,#87);
#72=LINE('',#383,#88);
#73=LINE('',#384,#89);
#74=VECTOR('',#254,1.621);
#75=VECTOR('',#259,4.);
#76=VECTOR('',#266,2.75);
#77=VECTOR('',#273,2.75);
#78=VECTOR('',#278,10.);
#79=VECTOR('',#279,10.);
#80=VECTOR('',#280,10.);
#81=VECTOR('',#281,10.);
#82=VECTOR('',#284,10.);
#83=VECTOR('',#285,10.);
#84=VECTOR('',#286,10.);
#85=VECTOR('',#289,10.);
#86=VECTOR('',#290,10.);
#87=VECTOR('',#291,10.);
#88=VECTOR('',#294,10.);
#89=VECTOR('',#295,10.);
#90=CIRCLE('',#232,1.621);
#91=CIRCLE('',#234,4.);
#92=CIRCLE('',#235,4.);
#93=CIRCLE('',#237,2.75);
#94=CIRCLE('',#238,2.75);
#95=CIRCLE('',#240,2.75);
#96=CIRCLE('',#241,2.75);
#97=VERTEX_POINT('',#302);
#98=VERTEX_POINT('',#304);
#99=VERTEX_POINT('',#306);
#100=VERTEX_POINT('',#344);
#101=VERTEX_POINT('',#346);
#102=VERTEX_POINT('',#350);
#103=VERTEX_POINT('',#352);
#104=VERTEX_POINT('',#356);
#105=VERTEX_POINT('',#358);
#106=VERTEX_POINT('',#362);
#107=VERTEX_POINT('',#363);
#108=VERTEX_POINT('',#365);
#109=VERTEX_POINT('',#367);
#110=VERTEX_POINT('',#371);
#111=VERTEX_POINT('',#373);
#112=VERTEX_POINT('',#377);
#113=VERTEX_POINT('',#379);
#114=EDGE_CURVE('',#97,#97,#90,.T.);
#115=EDGE_CURVE('',#97,#98,#58,.T.);
#116=EDGE_CURVE('',#99,#98,#56,.T.);
#117=EDGE_CURVE('',#98,#99,#57,.T.);
#118=EDGE_CURVE('',#100,#100,#91,.T.);
#119=EDGE_CURVE('',#100,#101,#59,.T.);
#120=EDGE_CURVE('',#101,#101,#92,.T.);
#121=EDGE_CURVE('',#102,#102,#93,.T.);
#122=EDGE_CURVE('',#102,#103,#60,.T.);
#123=EDGE_CURVE('',#103,#103,#94,.T.);
#124=EDGE_CURVE('',#104,#104,#95,.T.);
#125=EDGE_CURVE('',#104,#105,#61,.T.);
#126=EDGE_CURVE('',#105,#105,#96,.T.);
#127=EDGE_CURVE('',#106,#107,#62,.T.);
#128=EDGE_CURVE('',#107,#108,#63,.T.);
#129=EDGE_CURVE('',#109,#108,#64,.T.);
#130=EDGE_CURVE('',#106,#109,#65,.T.);
#131=EDGE_CURVE('',#110,#106,#66,.T.);
#132=EDGE_CURVE('',#111,#109,#67,.T.);
#133=EDGE_CURVE('',#110,#111,#68,.T.);
#134=EDGE_CURVE('',#112,#110,#69,.T.);
#135=EDGE_CURVE('',#113,#111,#70,.T.);
#136=EDGE_CURVE('',#112,#113,#71,.T.);
#137=EDGE_CURVE('',#107,#112,#72,.T.);
#138=EDGE_CURVE('',#108,#113,#73,.T.);
#139=ORIENTED_EDGE('',*,*,#114,.F.);
#140=ORIENTED_EDGE('',*,*,#115,.T.);
#141=ORIENTED_EDGE('',*,*,#116,.F.);
#142=ORIENTED_EDGE('',*,*,#117,.F.);
#143=ORIENTED_EDGE('',*,*,#115,.F.);
#144=ORIENTED_EDGE('',*,*,#118,.F.);
#145=ORIENTED_EDGE('',*,*,#119,.T.);
#146=ORIENTED_EDGE('',*,*,#120,.F.);
#147=ORIENTED_EDGE('',*,*,#119,.F.);
#148=ORIENTED_EDGE('',*,*,#116,.T.);
#149=ORIENTED_EDGE('',*,*,#117,.T.);
#150=ORIENTED_EDGE('',*,*,#121,.F.);
#151=ORIENTED_EDGE('',*,*,#122,.T.);
#152=ORIENTED_EDGE('',*,*,#123,.F.);
#153=ORIENTED_EDGE('',*,*,#122,.F.);
#154=ORIENTED_EDGE('',*,*,#124,.F.);
#155=ORIENTED_EDGE('',*,*,#125,.T.);
#156=ORIENTED_EDGE('',*,*,#126,.F.);
#157=ORIENTED_EDGE('',*,*,#125,.F.);
#158=ORIENTED_EDGE('',*,*,#127,.T.);
#159=ORIENTED_EDGE('',*,*,#128,.T.);
#160=ORIENTED_EDGE('',*,*,#129,.F.);
#161=ORIENTED_EDGE('',*,*,#130,.F.);
#162=ORIENTED_EDGE('',*,*,#118,.T.);
#163=ORIENTED_EDGE('',*,*,#131,.T.);
#164=ORIENTED_EDGE('',*,*,#130,.T.);
#165=ORIENTED_EDGE('',*,*,#132,.F.);
#166=ORIENTED_EDGE('',*,*,#133,.F.);
#167=ORIENTED_EDGE('',*,*,#134,.T.);
#168=ORIENTED_EDGE('',*,*,#133,.T.);
#169=ORIENTED_EDGE('',*,*,#135,.F.);
#170=ORIENTED_EDGE('',*,*,#136,.F.);
#171=ORIENTED_EDGE('',*,*,#120,.T.);
#172=ORIENTED_EDGE('',*,*,#137,.T.);
#173=ORIENTED_EDGE('',*,*,#136,.T.);
#174=ORIENTED_EDGE('',*,*,#138,.F.);
#175=ORIENTED_EDGE('',*,*,#128,.F.);
#176=ORIENTED_EDGE('',*,*,#138,.T.);
#177=ORIENTED_EDGE('',*,*,#135,.T.);
#178=ORIENTED_EDGE('',*,*,#132,.T.);
#179=ORIENTED_EDGE('',*,*,#129,.T.);
#180=ORIENTED_EDGE('',*,*,#114,.T.);
#181=ORIENTED_EDGE('',*,*,#121,.T.);
#182=ORIENTED_EDGE('',*,*,#124,.T.);
#183=ORIENTED_EDGE('',*,*,#137,.F.);
#184=ORIENTED_EDGE('',*,*,#127,.F.);
#185=ORIENTED_EDGE('',*,*,#131,.F.);
#186=ORIENTED_EDGE('',*,*,#134,.F.);
#187=ORIENTED_EDGE('',*,*,#123,.T.);
#188=ORIENTED_EDGE('',*,*,#126,.T.);
#189=CYLINDRICAL_SURFACE('',#231,1.621);
#190=CYLINDRICAL_SURFACE('',#233,4.);
#191=CYLINDRICAL_SURFACE('',#236,2.75);
#192=CYLINDRICAL_SURFACE('',#239,2.75);
#193=STYLED_ITEM('',(#407),#198);
#194=STYLED_ITEM('',(#407),#199);
#195=STYLED_ITEM('',(#407),#200);
#196=STYLED_ITEM('',(#407),#201);
#197=STYLED_ITEM('',(#406),#13);
#198=ADVANCED_FACE('',(#28),#189,.F.);
#199=ADVANCED_FACE('',(#29,#20),#190,.F.);
#200=ADVANCED_FACE('',(#30),#191,.F.);
#201=ADVANCED_FACE('',(#31),#192,.F.);
#202=ADVANCED_FACE('',(#32,#21),#14,.T.);
#203=ADVANCED_FACE('',(#33),#15,.T.);
#204=ADVANCED_FACE('',(#34,#22),#16,.T.);
#205=ADVANCED_FACE('',(#35),#17,.T.);
#206=ADVANCED_FACE('',(#36,#23,#24,#25),#18,.T.);
#207=ADVANCED_FACE('',(#37,#26,#27),#19,.F.);
#208=CLOSED_SHELL('',(#198,#199,#200,#201,#202,#203,#204,#205,#206,#207));
#209=DERIVED_UNIT_ELEMENT(#212,1.);
#210=DERIVED_UNIT_ELEMENT(#392,-3.);
#211=DIMENSIONAL_EXPONENTS(0.,1.,0.,0.,0.,0.,0.);
#212=(
CONVERSION_BASED_UNIT('gram',#214)
MASS_UNIT()
NAMED_UNIT(#211)
);
#213=(
MASS_UNIT()
NAMED_UNIT(*)
SI_UNIT(.KILO.,.GRAM.)
);
#214=MASS_MEASURE_WITH_UNIT(MASS_MEASURE(0.001),#213);
#215=DERIVED_UNIT((#209,#210));
#216=MEASURE_REPRESENTATION_ITEM('density measure',
POSITIVE_RATIO_MEASURE(7.85),#215);
#217=PROPERTY_DEFINITION_REPRESENTATION(#222,#219);
#218=PROPERTY_DEFINITION_REPRESENTATION(#223,#220);
#219=REPRESENTATION('material name',(#221),#389);
#220=REPRESENTATION('density',(#216),#389);
#221=DESCRIPTIVE_REPRESENTATION_ITEM('Acier','Acier');
#222=PROPERTY_DEFINITION('material property','material name',#399);
#223=PROPERTY_DEFINITION('material property','density of part',#399);
#224=DATE_TIME_ROLE('creation_date');
#225=APPLIED_DATE_AND_TIME_ASSIGNMENT(#226,#224,(#399));
#226=DATE_AND_TIME(#227,#228);
#227=CALENDAR_DATE(2022,16,11);
#228=LOCAL_TIME(0,0,0.,#229);
#229=COORDINATED_UNIVERSAL_TIME_OFFSET(0,0,.BEHIND.);
#230=AXIS2_PLACEMENT_3D('placement',#300,#248,#249);
#231=AXIS2_PLACEMENT_3D('',#301,#250,#251);
#232=AXIS2_PLACEMENT_3D('',#303,#252,#253);
#233=AXIS2_PLACEMENT_3D('',#343,#255,#256);
#234=AXIS2_PLACEMENT_3D('',#345,#257,#258);
#235=AXIS2_PLACEMENT_3D('',#348,#260,#261);
#236=AXIS2_PLACEMENT_3D('',#349,#262,#263);
#237=AXIS2_PLACEMENT_3D('',#351,#264,#265);
#238=AXIS2_PLACEMENT_3D('',#354,#267,#268);
#239=AXIS2_PLACEMENT_3D('',#355,#269,#270);
#240=AXIS2_PLACEMENT_3D('',#357,#271,#272);
#241=AXIS2_PLACEMENT_3D('',#360,#274,#275);
#242=AXIS2_PLACEMENT_3D('',#361,#276,#277);
#243=AXIS2_PLACEMENT_3D('',#370,#282,#283);
#244=AXIS2_PLACEMENT_3D('',#376,#287,#288);
#245=AXIS2_PLACEMENT_3D('',#382,#292,#293);
#246=AXIS2_PLACEMENT_3D('',#385,#296,#297);
#247=AXIS2_PLACEMENT_3D('',#386,#298,#299);
#248=DIRECTION('axis',(0.,0.,1.));
#249=DIRECTION('refdir',(1.,0.,0.));
#250=DIRECTION('center_axis',(0.,0.,1.));
#251=DIRECTION('ref_axis',(1.,0.,0.));
#252=DIRECTION('center_axis',(0.,0.,-1.));
#253=DIRECTION('ref_axis',(1.,0.,0.));
#254=DIRECTION('',(0.,0.,-1.));
#255=DIRECTION('center_axis',(-1.,0.,0.));
#256=DIRECTION('ref_axis',(0.,0.,1.));
#257=DIRECTION('center_axis',(1.,0.,0.));
#258=DIRECTION('ref_axis',(0.,0.,1.));
#259=DIRECTION('',(1.,0.,0.));
#260=DIRECTION('center_axis',(-1.,0.,0.));
#261=DIRECTION('ref_axis',(0.,0.,1.));
#262=DIRECTION('center_axis',(0.,0.,1.));
#263=DIRECTION('ref_axis',(1.,0.,0.));
#264=DIRECTION('center_axis',(0.,0.,-1.));
#265=DIRECTION('ref_axis',(1.,0.,0.));
#266=DIRECTION('',(0.,0.,-1.));
#267=DIRECTION('center_axis',(0.,0.,1.));
#268=DIRECTION('ref_axis',(1.,0.,0.));
#269=DIRECTION('center_axis',(0.,0.,1.));
#270=DIRECTION('ref_axis',(1.,0.,0.));
#271=DIRECTION('center_axis',(0.,0.,-1.));
#272=DIRECTION('ref_axis',(1.,0.,0.));
#273=DIRECTION('',(0.,0.,-1.));
#274=DIRECTION('center_axis',(0.,0.,1.));
#275=DIRECTION('ref_axis',(1.,0.,0.));
#276=DIRECTION('center_axis',(-1.,0.,0.));
#277=DIRECTION('ref_axis',(0.,-1.,0.));
#278=DIRECTION('',(0.,-1.,0.));
#279=DIRECTION('',(0.,0.,1.));
#280=DIRECTION('',(0.,-1.,0.));
#281=DIRECTION('',(0.,0.,1.));
#282=DIRECTION('center_axis',(0.,1.,0.));
#283=DIRECTION('ref_axis',(-1.,0.,0.));
#284=DIRECTION('',(-1.,0.,0.));
#285=DIRECTION('',(-1.,0.,0.));
#286=DIRECTION('',(0.,0.,1.));
#287=DIRECTION('center_axis',(1.,0.,0.));
#288=DIRECTION('ref_axis',(0.,1.,0.));
#289=DIRECTION('',(0.,1.,0.));
#290=DIRECTION('',(0.,1.,0.));
#291=DIRECTION('',(0.,0.,1.));
#292=DIRECTION('center_axis',(0.,-1.,0.));
#293=DIRECTION('ref_axis',(1.,0.,0.));
#294=DIRECTION('',(1.,0.,0.));
#295=DIRECTION('',(1.,0.,0.));
#296=DIRECTION('center_axis',(0.,0.,1.));
#297=DIRECTION('ref_axis',(1.,0.,0.));
#298=DIRECTION('center_axis',(0.,0.,1.));
#299=DIRECTION('ref_axis',(1.,0.,0.));
#300=CARTESIAN_POINT('',(0.,0.,0.));
#301=CARTESIAN_POINT('Origin',(0.,0.,-24.8074069840786));
#302=CARTESIAN_POINT('',(-1.621,-1.98515246141786E-16,40.));
#303=CARTESIAN_POINT('Origin',(0.,0.,40.));
#304=CARTESIAN_POINT('',(-1.621,-2.72729970668574E-16,34.));
#305=CARTESIAN_POINT('',(-1.621,-1.98515246141786E-16,-24.8074069840786));
#306=CARTESIAN_POINT('',(-1.38777878078145E-16,1.621,33.6568236216695));
#307=CARTESIAN_POINT('Ctrl Pts',(-1.38777878078145E-16,1.621,33.6568236216695));
#308=CARTESIAN_POINT('Ctrl Pts',(-0.206247359456281,1.621,33.6568236216695));
#309=CARTESIAN_POINT('Ctrl Pts',(-0.424352006258442,1.57929350229258,33.6761190784859));
#310=CARTESIAN_POINT('Ctrl Pts',(-0.822873447655705,1.41319587398117,33.7431131818561));
#311=CARTESIAN_POINT('Ctrl Pts',(-1.00353736484836,1.28890281975843,33.789579018016));
#312=CARTESIAN_POINT('Ctrl Pts',(-1.28875006812956,1.00369011647722,33.8748855852125));
#313=CARTESIAN_POINT('Ctrl Pts',(-1.41315880584567,0.822968656145221,33.9196253052364));
#314=CARTESIAN_POINT('Ctrl Pts',(-1.57934519814729,0.424221700651265,33.9825589633006));
#315=CARTESIAN_POINT('Ctrl Pts',(-1.621,0.206026557536757,34.));
#316=CARTESIAN_POINT('Ctrl Pts',(-1.621,-2.77555756156289E-16,34.));
#317=CARTESIAN_POINT('Ctrl Pts',(-1.621,-4.16333634234434E-16,34.));
#318=CARTESIAN_POINT('Ctrl Pts',(-1.621,-0.206026557536758,34.));
#319=CARTESIAN_POINT('Ctrl Pts',(-1.57934519814729,-0.424221700651265,33.9825589633006));
#320=CARTESIAN_POINT('Ctrl Pts',(-1.41315880584567,-0.822968656145221,33.9196253052364));
#321=CARTESIAN_POINT('Ctrl Pts',(-1.28875006812956,-1.00369011647722,33.8748855852125));
#322=CARTESIAN_POINT('Ctrl Pts',(-1.00353736484836,-1.28890281975843,33.789579018016));
#323=CARTESIAN_POINT('Ctrl Pts',(-0.822873447655705,-1.41319587398117,33.7431131818561));
#324=CARTESIAN_POINT('Ctrl Pts',(-0.424352006258442,-1.57929350229258,33.6761190784859));
#325=CARTESIAN_POINT('Ctrl Pts',(-0.206247359456281,-1.621,33.6568236216695));
#326=CARTESIAN_POINT('Ctrl Pts',(0.206247359456282,-1.621,33.6568236216695));
#327=CARTESIAN_POINT('Ctrl Pts',(0.424352006258442,-1.57929350229258,33.6761190784859));
#328=CARTESIAN_POINT('Ctrl Pts',(0.822873447655705,-1.41319587398117,33.7431131818561));
#329=CARTESIAN_POINT('Ctrl Pts',(1.00353736484836,-1.28890281975843,33.789579018016));
#330=CARTESIAN_POINT('Ctrl Pts',(1.28875006812956,-1.00369011647722,33.8748855852125));
#331=CARTESIAN_POINT('Ctrl Pts',(1.41315880584567,-0.82296865614522,33.9196253052364));
#332=CARTESIAN_POINT('Ctrl Pts',(1.57934519814729,-0.424221700651265,33.9825589633006));
#333=CARTESIAN_POINT('Ctrl Pts',(1.621,-0.206026557536757,34.));
#334=CARTESIAN_POINT('Ctrl Pts',(1.621,0.206026557536757,34.));
#335=CARTESIAN_POINT('Ctrl Pts',(1.57934519814729,0.424221700651265,33.9825589633006));
#336=CARTESIAN_POINT('Ctrl Pts',(1.41315880584567,0.82296865614522,33.9196253052364));
#337=CARTESIAN_POINT('Ctrl Pts',(1.28875006812956,1.00369011647722,33.8748855852125));
#338=CARTESIAN_POINT('Ctrl Pts',(1.00353736484836,1.28890281975843,33.789579018016));
#339=CARTESIAN_POINT('Ctrl Pts',(0.822873447655705,1.41319587398117,33.7431131818561));
#340=CARTESIAN_POINT('Ctrl Pts',(0.424352006258442,1.57929350229258,33.6761190784859));
#341=CARTESIAN_POINT('Ctrl Pts',(0.206247359456281,1.621,33.6568236216695));
#342=CARTESIAN_POINT('Ctrl Pts',(-6.93889390390723E-17,1.621,33.6568236216695));
#343=CARTESIAN_POINT('Origin',(59.8074069840786,0.,30.));
#344=CARTESIAN_POINT('',(-5.,-4.89858719658941E-16,26.));
#345=CARTESIAN_POINT('Origin',(-5.,0.,30.));
#346=CARTESIAN_POINT('',(5.,-4.89858719658941E-16,26.));
#347=CARTESIAN_POINT('',(59.8074069840786,-4.89858719658941E-16,26.));
#348=CARTESIAN_POINT('Origin',(5.,0.,30.));
#349=CARTESIAN_POINT('Origin',(0.,20.,-24.8074069840786));
#350=CARTESIAN_POINT('',(-2.75,20.,40.));
#351=CARTESIAN_POINT('Origin',(0.,20.,40.));
#352=CARTESIAN_POINT('',(-2.75,20.,0.));
#353=CARTESIAN_POINT('',(-2.75,20.,-24.8074069840786));
#354=CARTESIAN_POINT('Origin',(0.,20.,0.));
#355=CARTESIAN_POINT('Origin',(0.,-20.,-24.8074069840786));
#356=CARTESIAN_POINT('',(-2.75,-20.,40.));
#357=CARTESIAN_POINT('Origin',(0.,-20.,40.));
#358=CARTESIAN_POINT('',(-2.75,-20.,0.));
#359=CARTESIAN_POINT('',(-2.75,-20.,-24.8074069840786));
#360=CARTESIAN_POINT('Origin',(0.,-20.,0.));
#361=CARTESIAN_POINT('Origin',(-5.,25.,0.));
#362=CARTESIAN_POINT('',(-5.,25.,0.));
#363=CARTESIAN_POINT('',(-5.,-25.,0.));
#364=CARTESIAN_POINT('',(-5.,25.,0.));
#365=CARTESIAN_POINT('',(-5.,-25.,40.));
#366=CARTESIAN_POINT('',(-5.,-25.,0.));
#367=CARTESIAN_POINT('',(-5.,25.,40.));
#368=CARTESIAN_POINT('',(-5.,25.,40.));
#369=CARTESIAN_POINT('',(-5.,25.,0.));
#370=CARTESIAN_POINT('Origin',(5.,25.,0.));
#371=CARTESIAN_POINT('',(5.,25.,0.));
#372=CARTESIAN_POINT('',(5.,25.,0.));
#373=CARTESIAN_POINT('',(5.,25.,40.));
#374=CARTESIAN_POINT('',(5.,25.,40.));
#375=CARTESIAN_POINT('',(5.,25.,0.));
#376=CARTESIAN_POINT('Origin',(5.,-25.,0.));
#377=CARTESIAN_POINT('',(5.,-25.,0.));
#378=CARTESIAN_POINT('',(5.,-25.,0.));
#379=CARTESIAN_POINT('',(5.,-25.,40.));
#380=CARTESIAN_POINT('',(5.,-25.,40.));
#381=CARTESIAN_POINT('',(5.,-25.,0.));
#382=CARTESIAN_POINT('Origin',(-5.,-25.,0.));
#383=CARTESIAN_POINT('',(-5.,-25.,0.));
#384=CARTESIAN_POINT('',(-5.,-25.,40.));
#385=CARTESIAN_POINT('Origin',(0.,0.,40.));
#386=CARTESIAN_POINT('Origin',(0.,0.,0.));
#387=UNCERTAINTY_MEASURE_WITH_UNIT(LENGTH_MEASURE(0.01),#391,
'DISTANCE_ACCURACY_VALUE',
'Maximum model space distance between geometric entities at asserted c
onnectivities');
#388=UNCERTAINTY_MEASURE_WITH_UNIT(LENGTH_MEASURE(0.01),#391,
'DISTANCE_ACCURACY_VALUE',
'Maximum model space distance between geometric entities at asserted c
onnectivities');
#389=(
GEOMETRIC_REPRESENTATION_CONTEXT(3)
GLOBAL_UNCERTAINTY_ASSIGNED_CONTEXT((#387))
GLOBAL_UNIT_ASSIGNED_CONTEXT((#391,#393,#394))
REPRESENTATION_CONTEXT('','3D')
);
#390=(
GEOMETRIC_REPRESENTATION_CONTEXT(3)
GLOBAL_UNCERTAINTY_ASSIGNED_CONTEXT((#388))
GLOBAL_UNIT_ASSIGNED_CONTEXT((#391,#393,#394))
REPRESENTATION_CONTEXT('','3D')
);
#391=(
LENGTH_UNIT()
NAMED_UNIT(*)
SI_UNIT(.MILLI.,.METRE.)
);
#392=(
LENGTH_UNIT()
NAMED_UNIT(*)
SI_UNIT(.CENTI.,.METRE.)
);
#393=(
NAMED_UNIT(*)
PLANE_ANGLE_UNIT()
SI_UNIT($,.RADIAN.)
);
#394=(
NAMED_UNIT(*)
SI_UNIT($,.STERADIAN.)
SOLID_ANGLE_UNIT()
);
#395=SHAPE_DEFINITION_REPRESENTATION(#396,#397);
#396=PRODUCT_DEFINITION_SHAPE('',$,#399);
#397=SHAPE_REPRESENTATION('',(#230),#389);
#398=PRODUCT_DEFINITION_CONTEXT('part definition',#403,'design');
#399=PRODUCT_DEFINITION('support comparateur','support comparateur',#400,
#398);
#400=PRODUCT_DEFINITION_FORMATION('',$,#405);
#401=PRODUCT_RELATED_PRODUCT_CATEGORY('support comparateur',
'support comparateur',(#405));
#402=APPLICATION_PROTOCOL_DEFINITION('international standard',
'automotive_design',2009,#403);
#403=APPLICATION_CONTEXT(
'Core Data for Automotive Mechanical Design Process');
#404=PRODUCT_CONTEXT('part definition',#403,'mechanical');
#405=PRODUCT('support comparateur','support comparateur',$,(#404));
#406=PRESENTATION_STYLE_ASSIGNMENT((#408));
#407=PRESENTATION_STYLE_ASSIGNMENT((#409));
#408=SURFACE_STYLE_USAGE(.BOTH.,#412);
#409=SURFACE_STYLE_USAGE(.BOTH.,#413);
#410=SURFACE_STYLE_RENDERING_WITH_PROPERTIES($,#420,(#411));
#411=SURFACE_STYLE_TRANSPARENT(0.);
#412=SURFACE_SIDE_STYLE('',(#414,#410));
#413=SURFACE_SIDE_STYLE('',(#415));
#414=SURFACE_STYLE_FILL_AREA(#416);
#415=SURFACE_STYLE_FILL_AREA(#417);
#416=FILL_AREA_STYLE('',(#418));
#417=FILL_AREA_STYLE('',(#419));
#418=FILL_AREA_STYLE_COLOUR('',#420);
#419=FILL_AREA_STYLE_COLOUR('',#421);
#420=COLOUR_RGB('',1.,1.,0.);
#421=COLOUR_RGB('',0.603921568627451,0.603921568627451,0.627450980392157);
ENDSEC;
END-ISO-10303-21;
