ISO-10303-21;
HEADER;
/* Generated by software containing ST-Developer
 * from STEP Tools, Inc. (www.steptools.com) 
 */

FILE_DESCRIPTION(
/* description */ (''),
/* implementation_level */ '2;1');

FILE_NAME(
/* name */ 'Pige 8.5mm.stp',
/* time_stamp */ '2022-11-21T11:11:24+01:00',
/* author */ ('ethomas'),
/* organization */ (''),
/* preprocessor_version */ 'ST-DEVELOPER v19.2',
/* originating_system */ 'Autodesk Inventor 2023',
/* authorisation */ '');

FILE_SCHEMA (('AUTOMOTIVE_DESIGN { 1 0 10303 214 3 1 1 }'));
ENDSEC;

DATA;
#10=MECHANICAL_DESIGN_GEOMETRIC_PRESENTATION_REPRESENTATION('',(#13),#253);
#11=SHAPE_REPRESENTATION_RELATIONSHIP('SRR','None',#260,#12);
#12=ADVANCED_BREP_SHAPE_REPRESENTATION('',(#14),#252);
#13=STYLED_ITEM('',(#269),#14);
#14=MANIFOLD_SOLID_BREP('Solide1',#132);
#15=FACE_BOUND('',#38,.T.);
#16=FACE_BOUND('',#39,.T.);
#17=FACE_BOUND('',#40,.T.);
#18=FACE_BOUND('',#43,.T.);
#19=FACE_BOUND('',#44,.T.);
#20=PLANE('',#167);
#21=PLANE('',#168);
#22=PLANE('',#172);
#23=CONICAL_SURFACE('',#161,3.75,0.785398163397448);
#24=FACE_OUTER_BOUND('',#32,.T.);
#25=FACE_OUTER_BOUND('',#33,.T.);
#26=FACE_OUTER_BOUND('',#34,.T.);
#27=FACE_OUTER_BOUND('',#35,.T.);
#28=FACE_OUTER_BOUND('',#36,.T.);
#29=FACE_OUTER_BOUND('',#37,.T.);
#30=FACE_OUTER_BOUND('',#41,.T.);
#31=FACE_OUTER_BOUND('',#42,.T.);
#32=EDGE_LOOP('',(#90,#91,#92,#93));
#33=EDGE_LOOP('',(#94,#95,#96,#97));
#34=EDGE_LOOP('',(#98,#99,#100,#101,#102));
#35=EDGE_LOOP('',(#103,#104,#105,#106,#107));
#36=EDGE_LOOP('',(#108));
#37=EDGE_LOOP('',(#109));
#38=EDGE_LOOP('',(#110));
#39=EDGE_LOOP('',(#111));
#40=EDGE_LOOP('',(#112));
#41=EDGE_LOOP('',(#113,#114,#115,#116));
#42=EDGE_LOOP('',(#117));
#43=EDGE_LOOP('',(#118));
#44=EDGE_LOOP('',(#119));
#45=LINE('',#221,#50);
#46=LINE('',#227,#51);
#47=LINE('',#235,#52);
#48=LINE('',#240,#53);
#49=LINE('',#248,#54);
#50=VECTOR('',#179,2.05);
#51=VECTOR('',#186,2.05);
#52=VECTOR('',#195,3.75);
#53=VECTOR('',#202,4.25);
#54=VECTOR('',#213,13.);
#55=CIRCLE('',#156,2.05);
#56=CIRCLE('',#157,2.05);
#57=CIRCLE('',#159,2.05);
#58=CIRCLE('',#160,2.05);
#59=CIRCLE('',#162,4.25);
#60=CIRCLE('',#163,4.25);
#61=CIRCLE('',#164,3.25);
#62=CIRCLE('',#166,4.25);
#63=CIRCLE('',#169,13.);
#64=CIRCLE('',#171,13.);
#65=VERTEX_POINT('',#218);
#66=VERTEX_POINT('',#220);
#67=VERTEX_POINT('',#224);
#68=VERTEX_POINT('',#226);
#69=VERTEX_POINT('',#230);
#70=VERTEX_POINT('',#231);
#71=VERTEX_POINT('',#234);
#72=VERTEX_POINT('',#238);
#73=VERTEX_POINT('',#243);
#74=VERTEX_POINT('',#246);
#75=EDGE_CURVE('',#65,#65,#55,.T.);
#76=EDGE_CURVE('',#65,#66,#45,.T.);
#77=EDGE_CURVE('',#66,#66,#56,.T.);
#78=EDGE_CURVE('',#67,#67,#57,.T.);
#79=EDGE_CURVE('',#67,#68,#46,.T.);
#80=EDGE_CURVE('',#68,#68,#58,.T.);
#81=EDGE_CURVE('',#69,#70,#59,.T.);
#82=EDGE_CURVE('',#70,#69,#60,.T.);
#83=EDGE_CURVE('',#69,#71,#47,.T.);
#84=EDGE_CURVE('',#71,#71,#61,.T.);
#85=EDGE_CURVE('',#72,#72,#62,.T.);
#86=EDGE_CURVE('',#72,#70,#48,.T.);
#87=EDGE_CURVE('',#73,#73,#63,.T.);
#88=EDGE_CURVE('',#74,#74,#64,.T.);
#89=EDGE_CURVE('',#74,#73,#49,.T.);
#90=ORIENTED_EDGE('',*,*,#75,.F.);
#91=ORIENTED_EDGE('',*,*,#76,.T.);
#92=ORIENTED_EDGE('',*,*,#77,.F.);
#93=ORIENTED_EDGE('',*,*,#76,.F.);
#94=ORIENTED_EDGE('',*,*,#78,.F.);
#95=ORIENTED_EDGE('',*,*,#79,.T.);
#96=ORIENTED_EDGE('',*,*,#80,.F.);
#97=ORIENTED_EDGE('',*,*,#79,.F.);
#98=ORIENTED_EDGE('',*,*,#81,.T.);
#99=ORIENTED_EDGE('',*,*,#82,.T.);
#100=ORIENTED_EDGE('',*,*,#83,.T.);
#101=ORIENTED_EDGE('',*,*,#84,.T.);
#102=ORIENTED_EDGE('',*,*,#83,.F.);
#103=ORIENTED_EDGE('',*,*,#85,.F.);
#104=ORIENTED_EDGE('',*,*,#86,.T.);
#105=ORIENTED_EDGE('',*,*,#81,.F.);
#106=ORIENTED_EDGE('',*,*,#82,.F.);
#107=ORIENTED_EDGE('',*,*,#86,.F.);
#108=ORIENTED_EDGE('',*,*,#84,.F.);
#109=ORIENTED_EDGE('',*,*,#87,.F.);
#110=ORIENTED_EDGE('',*,*,#77,.T.);
#111=ORIENTED_EDGE('',*,*,#80,.T.);
#112=ORIENTED_EDGE('',*,*,#85,.T.);
#113=ORIENTED_EDGE('',*,*,#88,.F.);
#114=ORIENTED_EDGE('',*,*,#89,.T.);
#115=ORIENTED_EDGE('',*,*,#87,.T.);
#116=ORIENTED_EDGE('',*,*,#89,.F.);
#117=ORIENTED_EDGE('',*,*,#88,.T.);
#118=ORIENTED_EDGE('',*,*,#75,.T.);
#119=ORIENTED_EDGE('',*,*,#78,.T.);
#120=CYLINDRICAL_SURFACE('',#155,2.05);
#121=CYLINDRICAL_SURFACE('',#158,2.05);
#122=CYLINDRICAL_SURFACE('',#165,4.25);
#123=CYLINDRICAL_SURFACE('',#170,13.);
#124=ADVANCED_FACE('',(#24),#120,.F.);
#125=ADVANCED_FACE('',(#25),#121,.F.);
#126=ADVANCED_FACE('',(#26),#23,.T.);
#127=ADVANCED_FACE('',(#27),#122,.T.);
#128=ADVANCED_FACE('',(#28),#20,.F.);
#129=ADVANCED_FACE('',(#29,#15,#16,#17),#21,.F.);
#130=ADVANCED_FACE('',(#30),#123,.T.);
#131=ADVANCED_FACE('',(#31,#18,#19),#22,.T.);
#132=CLOSED_SHELL('',(#124,#125,#126,#127,#128,#129,#130,#131));
#133=DERIVED_UNIT_ELEMENT(#136,1.);
#134=DERIVED_UNIT_ELEMENT(#255,-3.);
#135=DIMENSIONAL_EXPONENTS(0.,1.,0.,0.,0.,0.,0.);
#136=(
CONVERSION_BASED_UNIT('gram',#138)
MASS_UNIT()
NAMED_UNIT(#135)
);
#137=(
MASS_UNIT()
NAMED_UNIT(*)
SI_UNIT(.KILO.,.GRAM.)
);
#138=MASS_MEASURE_WITH_UNIT(MASS_MEASURE(0.001),#137);
#139=DERIVED_UNIT((#133,#134));
#140=MEASURE_REPRESENTATION_ITEM('density measure',
POSITIVE_RATIO_MEASURE(7.85),#139);
#141=PROPERTY_DEFINITION_REPRESENTATION(#146,#143);
#142=PROPERTY_DEFINITION_REPRESENTATION(#147,#144);
#143=REPRESENTATION('material name',(#145),#252);
#144=REPRESENTATION('density',(#140),#252);
#145=DESCRIPTIVE_REPRESENTATION_ITEM('Acier','Acier');
#146=PROPERTY_DEFINITION('material property','material name',#262);
#147=PROPERTY_DEFINITION('material property','density of part',#262);
#148=DATE_TIME_ROLE('creation_date');
#149=APPLIED_DATE_AND_TIME_ASSIGNMENT(#150,#148,(#262));
#150=DATE_AND_TIME(#151,#152);
#151=CALENDAR_DATE(2022,10,10);
#152=LOCAL_TIME(0,0,0.,#153);
#153=COORDINATED_UNIVERSAL_TIME_OFFSET(0,0,.BEHIND.);
#154=AXIS2_PLACEMENT_3D('placement',#216,#173,#174);
#155=AXIS2_PLACEMENT_3D('',#217,#175,#176);
#156=AXIS2_PLACEMENT_3D('',#219,#177,#178);
#157=AXIS2_PLACEMENT_3D('',#222,#180,#181);
#158=AXIS2_PLACEMENT_3D('',#223,#182,#183);
#159=AXIS2_PLACEMENT_3D('',#225,#184,#185);
#160=AXIS2_PLACEMENT_3D('',#228,#187,#188);
#161=AXIS2_PLACEMENT_3D('',#229,#189,#190);
#162=AXIS2_PLACEMENT_3D('',#232,#191,#192);
#163=AXIS2_PLACEMENT_3D('',#233,#193,#194);
#164=AXIS2_PLACEMENT_3D('',#236,#196,#197);
#165=AXIS2_PLACEMENT_3D('',#237,#198,#199);
#166=AXIS2_PLACEMENT_3D('',#239,#200,#201);
#167=AXIS2_PLACEMENT_3D('',#241,#203,#204);
#168=AXIS2_PLACEMENT_3D('',#242,#205,#206);
#169=AXIS2_PLACEMENT_3D('',#244,#207,#208);
#170=AXIS2_PLACEMENT_3D('',#245,#209,#210);
#171=AXIS2_PLACEMENT_3D('',#247,#211,#212);
#172=AXIS2_PLACEMENT_3D('',#249,#214,#215);
#173=DIRECTION('axis',(0.,0.,1.));
#174=DIRECTION('refdir',(1.,0.,0.));
#175=DIRECTION('center_axis',(0.,0.,1.));
#176=DIRECTION('ref_axis',(1.,0.,0.));
#177=DIRECTION('center_axis',(0.,0.,-1.));
#178=DIRECTION('ref_axis',(1.,0.,0.));
#179=DIRECTION('',(0.,0.,-1.));
#180=DIRECTION('center_axis',(0.,0.,1.));
#181=DIRECTION('ref_axis',(1.,0.,0.));
#182=DIRECTION('center_axis',(0.,0.,1.));
#183=DIRECTION('ref_axis',(1.,0.,0.));
#184=DIRECTION('center_axis',(0.,0.,-1.));
#185=DIRECTION('ref_axis',(1.,0.,0.));
#186=DIRECTION('',(0.,0.,-1.));
#187=DIRECTION('center_axis',(0.,0.,1.));
#188=DIRECTION('ref_axis',(1.,0.,0.));
#189=DIRECTION('center_axis',(0.,0.,1.));
#190=DIRECTION('ref_axis',(-1.,0.,0.));
#191=DIRECTION('center_axis',(0.,0.,-1.));
#192=DIRECTION('ref_axis',(-1.,0.,0.));
#193=DIRECTION('center_axis',(0.,0.,-1.));
#194=DIRECTION('ref_axis',(-1.,0.,0.));
#195=DIRECTION('',(-0.707106781186547,-8.65956056235493E-17,-0.707106781186548));
#196=DIRECTION('center_axis',(0.,0.,1.));
#197=DIRECTION('ref_axis',(-1.,0.,0.));
#198=DIRECTION('center_axis',(0.,0.,1.));
#199=DIRECTION('ref_axis',(1.,0.,0.));
#200=DIRECTION('center_axis',(0.,0.,1.));
#201=DIRECTION('ref_axis',(1.,0.,0.));
#202=DIRECTION('',(0.,0.,-1.));
#203=DIRECTION('center_axis',(0.,0.,1.));
#204=DIRECTION('ref_axis',(1.,0.,0.));
#205=DIRECTION('center_axis',(0.,0.,1.));
#206=DIRECTION('ref_axis',(1.,0.,0.));
#207=DIRECTION('center_axis',(0.,0.,1.));
#208=DIRECTION('ref_axis',(1.,0.,0.));
#209=DIRECTION('center_axis',(0.,0.,1.));
#210=DIRECTION('ref_axis',(1.,0.,0.));
#211=DIRECTION('center_axis',(0.,0.,1.));
#212=DIRECTION('ref_axis',(1.,0.,0.));
#213=DIRECTION('',(0.,0.,-1.));
#214=DIRECTION('center_axis',(0.,0.,1.));
#215=DIRECTION('ref_axis',(1.,0.,0.));
#216=CARTESIAN_POINT('',(0.,0.,0.));
#217=CARTESIAN_POINT('Origin',(-8.,0.,-19.4634681508314));
#218=CARTESIAN_POINT('',(-10.05,-2.51052593825207E-16,25.));
#219=CARTESIAN_POINT('Origin',(-8.,0.,25.));
#220=CARTESIAN_POINT('',(-10.05,-2.51052593825207E-16,20.));
#221=CARTESIAN_POINT('',(-10.05,-2.51052593825207E-16,-19.4634681508314));
#222=CARTESIAN_POINT('Origin',(-8.,0.,20.));
#223=CARTESIAN_POINT('Origin',(8.,0.,-19.4634681508314));
#224=CARTESIAN_POINT('',(5.95,-2.51052593825207E-16,25.));
#225=CARTESIAN_POINT('Origin',(8.,0.,25.));
#226=CARTESIAN_POINT('',(5.95,-2.51052593825207E-16,20.));
#227=CARTESIAN_POINT('',(5.95,-2.51052593825207E-16,-19.4634681508314));
#228=CARTESIAN_POINT('Origin',(8.,0.,20.));
#229=CARTESIAN_POINT('Origin',(0.,0.,0.5));
#230=CARTESIAN_POINT('',(4.25,-5.20474889637625E-16,1.));
#231=CARTESIAN_POINT('',(-4.25,-5.20474889637625E-16,1.));
#232=CARTESIAN_POINT('Origin',(0.,0.,1.));
#233=CARTESIAN_POINT('Origin',(0.,0.,1.));
#234=CARTESIAN_POINT('',(3.25,3.9801020972289E-16,0.));
#235=CARTESIAN_POINT('',(3.75,4.59242549680258E-16,0.5));
#236=CARTESIAN_POINT('Origin',(0.,0.,0.));
#237=CARTESIAN_POINT('Origin',(0.,0.,0.));
#238=CARTESIAN_POINT('',(-4.25,-5.20474889637625E-16,20.));
#239=CARTESIAN_POINT('Origin',(0.,0.,20.));
#240=CARTESIAN_POINT('',(-4.25,-5.20474889637625E-16,0.));
#241=CARTESIAN_POINT('Origin',(0.,0.,0.));
#242=CARTESIAN_POINT('Origin',(0.,0.,20.));
#243=CARTESIAN_POINT('',(-13.,-1.59204083889156E-15,20.));
#244=CARTESIAN_POINT('Origin',(0.,0.,20.));
#245=CARTESIAN_POINT('Origin',(0.,0.,20.));
#246=CARTESIAN_POINT('',(-13.,-1.59204083889156E-15,25.));
#247=CARTESIAN_POINT('Origin',(0.,0.,25.));
#248=CARTESIAN_POINT('',(-13.,-1.59204083889156E-15,20.));
#249=CARTESIAN_POINT('Origin',(0.,0.,25.));
#250=UNCERTAINTY_MEASURE_WITH_UNIT(LENGTH_MEASURE(0.01),#254,
'DISTANCE_ACCURACY_VALUE',
'Maximum model space distance between geometric entities at asserted c
onnectivities');
#251=UNCERTAINTY_MEASURE_WITH_UNIT(LENGTH_MEASURE(0.01),#254,
'DISTANCE_ACCURACY_VALUE',
'Maximum model space distance between geometric entities at asserted c
onnectivities');
#252=(
GEOMETRIC_REPRESENTATION_CONTEXT(3)
GLOBAL_UNCERTAINTY_ASSIGNED_CONTEXT((#250))
GLOBAL_UNIT_ASSIGNED_CONTEXT((#254,#256,#257))
REPRESENTATION_CONTEXT('','3D')
);
#253=(
GEOMETRIC_REPRESENTATION_CONTEXT(3)
GLOBAL_UNCERTAINTY_ASSIGNED_CONTEXT((#251))
GLOBAL_UNIT_ASSIGNED_CONTEXT((#254,#256,#257))
REPRESENTATION_CONTEXT('','3D')
);
#254=(
LENGTH_UNIT()
NAMED_UNIT(*)
SI_UNIT(.MILLI.,.METRE.)
);
#255=(
LENGTH_UNIT()
NAMED_UNIT(*)
SI_UNIT(.CENTI.,.METRE.)
);
#256=(
NAMED_UNIT(*)
PLANE_ANGLE_UNIT()
SI_UNIT($,.RADIAN.)
);
#257=(
NAMED_UNIT(*)
SI_UNIT($,.STERADIAN.)
SOLID_ANGLE_UNIT()
);
#258=SHAPE_DEFINITION_REPRESENTATION(#259,#260);
#259=PRODUCT_DEFINITION_SHAPE('',$,#262);
#260=SHAPE_REPRESENTATION('',(#154),#252);
#261=PRODUCT_DEFINITION_CONTEXT('part definition',#266,'design');
#262=PRODUCT_DEFINITION('Pige centage','Pige 8.5mm',#263,#261);
#263=PRODUCT_DEFINITION_FORMATION('',$,#268);
#264=PRODUCT_RELATED_PRODUCT_CATEGORY('Pige 8.5mm','Pige 8.5mm',(#268));
#265=APPLICATION_PROTOCOL_DEFINITION('international standard',
'automotive_design',2009,#266);
#266=APPLICATION_CONTEXT(
'Core Data for Automotive Mechanical Design Process');
#267=PRODUCT_CONTEXT('part definition',#266,'mechanical');
#268=PRODUCT('Pige centage','Pige 8.5mm',$,(#267));
#269=PRESENTATION_STYLE_ASSIGNMENT((#270));
#270=SURFACE_STYLE_USAGE(.BOTH.,#273);
#271=SURFACE_STYLE_RENDERING_WITH_PROPERTIES($,#277,(#272));
#272=SURFACE_STYLE_TRANSPARENT(0.);
#273=SURFACE_SIDE_STYLE('',(#274,#271));
#274=SURFACE_STYLE_FILL_AREA(#275);
#275=FILL_AREA_STYLE('',(#276));
#276=FILL_AREA_STYLE_COLOUR('',#277);
#277=COLOUR_RGB('',0.866666666666667,0.866666666666667,0.0509803921568627);
ENDSEC;
END-ISO-10303-21;
