ISO-10303-21;
HEADER;
/* Generated by software containing ST-Developer
 * from STEP Tools, Inc. (www.steptools.com) 
 */
/* OPTION: using custom schema-name function */

FILE_DESCRIPTION(
/* description */ (''),
/* implementation_level */ '2;1');

FILE_NAME(
/* name */ '13_A.stp',
/* time_stamp */ '2022-11-21T10:28:32+08:00',
/* author */ (''),
/* organization */ (''),
/* preprocessor_version */ 'ST-DEVELOPER v16.7',
/* originating_system */ 'SIEMENS PLM Software NX 12.0',
/* authorisation */ '');

FILE_SCHEMA (('AUTOMOTIVE_DESIGN { 1 0 10303 214 3 1 1 1 }'));
ENDSEC;

DATA;
#10=SHAPE_REPRESENTATION_RELATIONSHIP('None',
'relationship between 13_A.stp-None and 13_A.stp-None',#22,#11);
#11=ADVANCED_BREP_SHAPE_REPRESENTATION('13_A.stp-None',(#32),#240);
#12=SHAPE_DEFINITION_REPRESENTATION(#13,#22);
#13=PRODUCT_DEFINITION_SHAPE('','',#14);
#14=PRODUCT_DEFINITION(' ','',#16,#15);
#15=PRODUCT_DEFINITION_CONTEXT('part definition',#21,'design');
#16=PRODUCT_DEFINITION_FORMATION_WITH_SPECIFIED_SOURCE(' ',' ',#18,
 .NOT_KNOWN.);
#17=PRODUCT_RELATED_PRODUCT_CATEGORY('part','',(#18));
#18=PRODUCT('13_A.stp','13_A.stp',' ',(#19));
#19=PRODUCT_CONTEXT(' ',#21,'mechanical');
#20=APPLICATION_PROTOCOL_DEFINITION('international standard',
'automotive_design',2010,#21);
#21=APPLICATION_CONTEXT(
'core data for automotive mechanical design processes');
#22=SHAPE_REPRESENTATION('13_A.stp-None',(#131),#240);
#23=PRESENTATION_LAYER_ASSIGNMENT('1','Layer 1',(#32));
#24=STYLED_ITEM('',(#25),#32);
#25=PRESENTATION_STYLE_ASSIGNMENT((#26));
#26=SURFACE_STYLE_USAGE(.BOTH.,#27);
#27=SURFACE_SIDE_STYLE('',(#28));
#28=SURFACE_STYLE_FILL_AREA(#29);
#29=FILL_AREA_STYLE('',(#30));
#30=FILL_AREA_STYLE_COLOUR('',#31);
#31=COLOUR_RGB('Strong Green',0.2,1.,0.2);
#32=MANIFOLD_SOLID_BREP('WAND_SWIVEL_FITTING-3D_NEW.STP',#33);
#33=CLOSED_SHELL('',(#47,#48,#49,#50,#51,#52,#53,#54));
#34=CONICAL_SURFACE('',#141,15.34989671342,44.9998715901115);
#35=CONICAL_SURFACE('',#145,15.34989607272,44.9998715901115);
#36=FACE_OUTER_BOUND('',#78,.T.);
#37=FACE_OUTER_BOUND('',#81,.T.);
#38=ELLIPSE('',#140,14.5999345581764,14.5999345579556);
#39=ELLIPSE('',#142,14.5999345581835,14.5999345579628);
#40=B_SPLINE_CURVE_WITH_KNOTS('',3,(#191,#192,#193,#194,#195,#196,#197,
#198,#199,#200),.UNSPECIFIED.,.F.,.F.,(4,2,2,2,4),(0.,0.25,0.5,0.75,1.),
 .UNSPECIFIED.);
#41=B_SPLINE_CURVE_WITH_KNOTS('',3,(#203,#204,#205,#206,#207,#208,#209,
#210,#211,#212),.UNSPECIFIED.,.F.,.F.,(4,2,2,2,4),(0.,0.25,0.5,0.75,1.),
 .UNSPECIFIED.);
#42=B_SPLINE_CURVE_WITH_KNOTS('',3,(#214,#215,#216,#217,#218,#219,#220,
#221,#222,#223,#224),.UNSPECIFIED.,.F.,.F.,(4,1,1,1,2,2,4),(0.,0.250000000000007,
0.375000000000013,0.437500000000015,0.468750000000015,0.500000000000015,
1.),.UNSPECIFIED.);
#43=B_SPLINE_CURVE_WITH_KNOTS('',3,(#226,#227,#228,#229),.UNSPECIFIED.,
 .F.,.F.,(4,4),(0.,1.),.UNSPECIFIED.);
#44=CYLINDRICAL_SURFACE('',#136,10.);
#45=CYLINDRICAL_SURFACE('',#139,16.09999999988);
#46=CYLINDRICAL_SURFACE('',#146,3.);
#47=ADVANCED_FACE('',(#58,#59),#55,.T.);
#48=ADVANCED_FACE('',(#60,#61),#44,.T.);
#49=ADVANCED_FACE('',(#62,#63),#56,.T.);
#50=ADVANCED_FACE('',(#64,#65),#45,.T.);
#51=ADVANCED_FACE('',(#36),#34,.T.);
#52=ADVANCED_FACE('',(#66,#67),#57,.T.);
#53=ADVANCED_FACE('',(#37),#35,.T.);
#54=ADVANCED_FACE('',(#68,#69),#46,.F.);
#55=PLANE('',#134);
#56=PLANE('',#138);
#57=PLANE('',#144);
#58=FACE_BOUND('',#70,.T.);
#59=FACE_BOUND('',#71,.T.);
#60=FACE_BOUND('',#72,.T.);
#61=FACE_BOUND('',#73,.T.);
#62=FACE_BOUND('',#74,.T.);
#63=FACE_BOUND('',#75,.T.);
#64=FACE_BOUND('',#76,.T.);
#65=FACE_BOUND('',#77,.T.);
#66=FACE_BOUND('',#79,.T.);
#67=FACE_BOUND('',#80,.T.);
#68=FACE_BOUND('',#82,.T.);
#69=FACE_BOUND('',#83,.T.);
#70=EDGE_LOOP('',(#84));
#71=EDGE_LOOP('',(#85));
#72=EDGE_LOOP('',(#86));
#73=EDGE_LOOP('',(#87));
#74=EDGE_LOOP('',(#88));
#75=EDGE_LOOP('',(#89));
#76=EDGE_LOOP('',(#90));
#77=EDGE_LOOP('',(#91,#92));
#78=EDGE_LOOP('',(#93,#94,#95,#96));
#79=EDGE_LOOP('',(#97,#98));
#80=EDGE_LOOP('',(#99));
#81=EDGE_LOOP('',(#100,#101,#102,#103));
#82=EDGE_LOOP('',(#104));
#83=EDGE_LOOP('',(#105));
#84=ORIENTED_EDGE('',*,*,#115,.T.);
#85=ORIENTED_EDGE('',*,*,#116,.T.);
#86=ORIENTED_EDGE('',*,*,#115,.F.);
#87=ORIENTED_EDGE('',*,*,#117,.F.);
#88=ORIENTED_EDGE('',*,*,#118,.T.);
#89=ORIENTED_EDGE('',*,*,#117,.T.);
#90=ORIENTED_EDGE('',*,*,#118,.F.);
#91=ORIENTED_EDGE('',*,*,#119,.F.);
#92=ORIENTED_EDGE('',*,*,#120,.F.);
#93=ORIENTED_EDGE('',*,*,#121,.F.);
#94=ORIENTED_EDGE('',*,*,#120,.T.);
#95=ORIENTED_EDGE('',*,*,#122,.F.);
#96=ORIENTED_EDGE('',*,*,#123,.F.);
#97=ORIENTED_EDGE('',*,*,#123,.T.);
#98=ORIENTED_EDGE('',*,*,#124,.T.);
#99=ORIENTED_EDGE('',*,*,#125,.T.);
#100=ORIENTED_EDGE('',*,*,#122,.T.);
#101=ORIENTED_EDGE('',*,*,#119,.T.);
#102=ORIENTED_EDGE('',*,*,#121,.T.);
#103=ORIENTED_EDGE('',*,*,#124,.F.);
#104=ORIENTED_EDGE('',*,*,#125,.F.);
#105=ORIENTED_EDGE('',*,*,#116,.F.);
#106=VERTEX_POINT('',#181);
#107=VERTEX_POINT('',#183);
#108=VERTEX_POINT('',#186);
#109=VERTEX_POINT('',#189);
#110=VERTEX_POINT('',#201);
#111=VERTEX_POINT('',#202);
#112=VERTEX_POINT('',#225);
#113=VERTEX_POINT('',#230);
#114=VERTEX_POINT('',#235);
#115=EDGE_CURVE('',#106,#106,#126,.T.);
#116=EDGE_CURVE('',#107,#107,#127,.T.);
#117=EDGE_CURVE('',#108,#108,#128,.T.);
#118=EDGE_CURVE('',#109,#109,#129,.T.);
#119=EDGE_CURVE('',#110,#111,#40,.T.);
#120=EDGE_CURVE('',#111,#110,#41,.T.);
#121=EDGE_CURVE('',#111,#112,#42,.T.);
#122=EDGE_CURVE('',#113,#110,#43,.T.);
#123=EDGE_CURVE('',#112,#113,#38,.T.);
#124=EDGE_CURVE('',#113,#112,#39,.T.);
#125=EDGE_CURVE('',#114,#114,#130,.T.);
#126=CIRCLE('',#132,10.);
#127=CIRCLE('',#133,3.);
#128=CIRCLE('',#135,10.);
#129=CIRCLE('',#137,16.09999999988);
#130=CIRCLE('',#143,3.);
#131=AXIS2_PLACEMENT_3D('',#179,#147,#148);
#132=AXIS2_PLACEMENT_3D('',#180,#149,#150);
#133=AXIS2_PLACEMENT_3D('',#182,#151,#152);
#134=AXIS2_PLACEMENT_3D('',#184,#153,#154);
#135=AXIS2_PLACEMENT_3D('',#185,#155,#156);
#136=AXIS2_PLACEMENT_3D('',#187,#157,#158);
#137=AXIS2_PLACEMENT_3D('',#188,#159,#160);
#138=AXIS2_PLACEMENT_3D('',#190,#161,#162);
#139=AXIS2_PLACEMENT_3D('',#213,#163,#164);
#140=AXIS2_PLACEMENT_3D('',#231,#165,#166);
#141=AXIS2_PLACEMENT_3D('',#232,#167,#168);
#142=AXIS2_PLACEMENT_3D('',#233,#169,#170);
#143=AXIS2_PLACEMENT_3D('',#234,#171,#172);
#144=AXIS2_PLACEMENT_3D('',#236,#173,#174);
#145=AXIS2_PLACEMENT_3D('',#237,#175,#176);
#146=AXIS2_PLACEMENT_3D('',#238,#177,#178);
#147=DIRECTION('',(0.,0.,1.));
#148=DIRECTION('',(1.,0.,0.));
#149=DIRECTION('',(0.,1.,0.));
#150=DIRECTION('',(0.,0.,-1.));
#151=DIRECTION('',(0.,-1.,0.));
#152=DIRECTION('',(0.,0.,1.));
#153=DIRECTION('',(0.,1.,0.));
#154=DIRECTION('',(-1.,0.,0.));
#155=DIRECTION('',(0.,-1.,0.));
#156=DIRECTION('',(0.,0.,-1.));
#157=DIRECTION('',(0.,-1.,0.));
#158=DIRECTION('',(0.,0.,1.));
#159=DIRECTION('',(0.,1.,0.));
#160=DIRECTION('',(-1.,0.,0.));
#161=DIRECTION('',(0.,1.,0.));
#162=DIRECTION('',(-1.,0.,0.));
#163=DIRECTION('',(0.,-1.,0.));
#164=DIRECTION('',(1.,0.,0.));
#165=DIRECTION('',(0.,-1.,0.));
#166=DIRECTION('',(1.,0.,-3.10140045330251E-9));
#167=DIRECTION('',(3.88865402192016E-6,0.999999999992439,-1.20602733463198E-14));
#168=DIRECTION('',(3.88866973176316E-6,-1.51336568808466E-11,-0.999999999992439));
#169=DIRECTION('',(0.,-1.,0.));
#170=DIRECTION('',(-1.,0.,2.28529514730115E-9));
#171=DIRECTION('',(0.,1.,0.));
#172=DIRECTION('',(0.,0.,-1.));
#173=DIRECTION('',(0.,-1.,0.));
#174=DIRECTION('',(0.,0.,1.));
#175=DIRECTION('',(-3.88865404437119E-6,0.999999999992439,8.88672221713445E-15));
#176=DIRECTION('',(-3.88866973614115E-6,-1.51305234908537E-11,0.999999999992439));
#177=DIRECTION('',(0.,1.,0.));
#178=DIRECTION('',(0.,0.,-1.));
#179=CARTESIAN_POINT('',(0.,0.,0.));
#180=CARTESIAN_POINT('',(0.,-6.95,0.));
#181=CARTESIAN_POINT('',(0.,-6.95,-10.));
#182=CARTESIAN_POINT('',(0.,-6.95,0.));
#183=CARTESIAN_POINT('',(0.,-6.95,3.));
#184=CARTESIAN_POINT('',(-10.2,-6.95,10.2));
#185=CARTESIAN_POINT('',(0.,-24.90000000011,0.));
#186=CARTESIAN_POINT('',(0.,-24.90000000011,-10.));
#187=CARTESIAN_POINT('',(0.,-15.92500000006,0.));
#188=CARTESIAN_POINT('',(0.,-24.90000000011,0.));
#189=CARTESIAN_POINT('',(-16.09999999988,-24.90000000011,0.));
#190=CARTESIAN_POINT('',(-16.42199999988,-24.90000000011,16.42199999988));
#191=CARTESIAN_POINT('',(1.22824543477789E-7,-26.3999278339538,16.1000000000262));
#192=CARTESIAN_POINT('',(-4.25097437799803,-26.399960895304,16.1000000324562));
#193=CARTESIAN_POINT('',(-8.41932940495713,-26.3999933139741,14.3489384213776));
#194=CARTESIAN_POINT('',(-14.3473176952094,-26.400039417934,8.42209097566591));
#195=CARTESIAN_POINT('',(-16.099998517236,-26.4000524339648,4.25097409951226));
#196=CARTESIAN_POINT('',(-16.0999985123332,-26.4000524339646,-4.25097411808106));
#197=CARTESIAN_POINT('',(-14.3489383041012,-26.4000394305378,-8.41932956058711));
#198=CARTESIAN_POINT('',(-8.42209094573103,-26.3999933354513,-14.3473176868191));
#199=CARTESIAN_POINT('',(-4.25097462544004,-26.3999608952451,-16.0999999669664));
#200=CARTESIAN_POINT('',(-1.24656054391749E-7,-26.3999278338949,-16.09999999988));
#201=CARTESIAN_POINT('',(1.236950341333E-7,-26.4000398709,16.09988796338));
#202=CARTESIAN_POINT('',(-1.237738670237E-7,-26.40004115222,-16.09988668206));
#203=CARTESIAN_POINT('',(-1.22893421441791E-7,-26.3999278339481,-16.1000000000295));
#204=CARTESIAN_POINT('',(4.2509743778627,-26.3999608952982,-16.1000000324778));
#205=CARTESIAN_POINT('',(8.41932940476495,-26.3999933139668,-14.3489384214713));
#206=CARTESIAN_POINT('',(14.3473176950232,-26.4000394179264,-8.42209097595065));
#207=CARTESIAN_POINT('',(16.0999999998821,-26.4000530491056,-4.25097450084062));
#208=CARTESIAN_POINT('',(16.0999999998779,-26.4000530491055,4.25097450085689));
#209=CARTESIAN_POINT('',(14.348938302934,-26.4000394305303,8.4193295620799));
#210=CARTESIAN_POINT('',(8.42209094564866,-26.3999933354439,14.3473176865762));
#211=CARTESIAN_POINT('',(4.25097462524477,-26.3999608952378,16.0999999670001));
#212=CARTESIAN_POINT('',(1.24528134774189E-7,-26.3999278338877,16.09999999988));
#213=CARTESIAN_POINT('',(0.,-25.65003922768,0.));
#214=CARTESIAN_POINT('',(-1.237738670237E-7,-26.40004115222,-16.09988668206));
#215=CARTESIAN_POINT('',(4.03767885935543E-9,-26.5250393084886,-15.9748890860795));
#216=CARTESIAN_POINT('',(7.11742726380817E-9,-26.7125365425414,-15.7873926924559));
#217=CARTESIAN_POINT('',(5.1898182471333E-9,-26.931283315603,-15.5686468998952));
#218=CARTESIAN_POINT('',(2.89525306452921E-9,-27.0406567021338,-15.4592740036148));
#219=CARTESIAN_POINT('',(1.63196582505185E-9,-27.0875310106471,-15.4123999052089));
#220=CARTESIAN_POINT('',(7.2817443178337E-10,-27.1187805496559,-15.3811505062717));
#221=CARTESIAN_POINT('',(2.95495766923162E-10,-27.1328821160758,-15.36704900306));
#222=CARTESIAN_POINT('',(-9.27948963039258E-9,-27.4243976500868,-15.0755347757254));
#223=CARTESIAN_POINT('',(-8.83872264956196E-9,-27.6743939621572,-14.8255395842274));
#224=CARTESIAN_POINT('',(9.682807910371E-11,-27.90001902485,-14.59991553286));
#225=CARTESIAN_POINT('',(2.2470452789749E-11,-27.9000000000916,-14.5999345575329));
#226=CARTESIAN_POINT('',(3.821909425698E-10,-27.90001902485,14.59991553286));
#227=CARTESIAN_POINT('',(1.73440410387104E-8,-27.4000259736233,15.0999063429465));
#228=CARTESIAN_POINT('',(3.61138922063771E-8,-26.900032922371,15.5998971530519));
#229=CARTESIAN_POINT('',(1.236950341333E-7,-26.4000398709,16.09988796338));
#230=CARTESIAN_POINT('',(3.08534014801546E-10,-27.90000000011,14.5999345575143));
#231=CARTESIAN_POINT('',(0.000113548429746166,-27.90000000011,-1.38129917068384E-13));
#232=CARTESIAN_POINT('',(5.969094641181E-5,-27.15003448294,2.890370615852E-14));
#233=CARTESIAN_POINT('',(-0.000113548430121978,-27.90000000011,1.43984628245192E-13));
#234=CARTESIAN_POINT('',(0.,-27.90000000011,0.));
#235=CARTESIAN_POINT('',(0.,-27.90000000011,-3.));
#236=CARTESIAN_POINT('',(-14.89200297555,-27.90000000011,-14.89194506554));
#237=CARTESIAN_POINT('',(-5.969094398515E-5,-27.15003512365,2.090437653086E-14));
#238=CARTESIAN_POINT('',(0.,-17.42500000006,0.));
#239=MECHANICAL_DESIGN_GEOMETRIC_PRESENTATION_REPRESENTATION('',(#24),#240);
#240=(
GEOMETRIC_REPRESENTATION_CONTEXT(3)
GLOBAL_UNCERTAINTY_ASSIGNED_CONTEXT((#241))
GLOBAL_UNIT_ASSIGNED_CONTEXT((#247,#243,#242))
REPRESENTATION_CONTEXT('13_A','TOP_LEVEL_ASSEMBLY_PART')
);
#241=UNCERTAINTY_MEASURE_WITH_UNIT(LENGTH_MEASURE(0.0508),#247,
'DISTANCE_ACCURACY_VALUE','Maximum Tolerance applied to model');
#242=(
NAMED_UNIT(*)
SI_UNIT($,.STERADIAN.)
SOLID_ANGLE_UNIT()
);
#243=(
CONVERSION_BASED_UNIT('DEGREE',#245)
NAMED_UNIT(#244)
PLANE_ANGLE_UNIT()
);
#244=DIMENSIONAL_EXPONENTS(0.,0.,0.,0.,0.,0.,0.);
#245=PLANE_ANGLE_MEASURE_WITH_UNIT(PLANE_ANGLE_MEASURE(0.0174532925),#246);
#246=(
NAMED_UNIT(*)
PLANE_ANGLE_UNIT()
SI_UNIT($,.RADIAN.)
);
#247=(
LENGTH_UNIT()
NAMED_UNIT(*)
SI_UNIT(.MILLI.,.METRE.)
);
ENDSEC;
END-ISO-10303-21;
