ISO-10303-21;
HEADER;
/* Generated by software containing ST-Developer
 * from STEP Tools, Inc. (www.steptools.com) 
 */

FILE_DESCRIPTION(
/* description */ (''),
/* implementation_level */ '2;1');

FILE_NAME(
/* name */ 
'//192.168.0.6/homes/Benoit DAMBROSIO/Redirected Folders/Desktop/ronde
lle web mb ek v3.step',
/* time_stamp */ '2022-05-29T10:01:04+02:00',
/* author */ (''),
/* organization */ (''),
/* preprocessor_version */ 'ST-DEVELOPER v19',
/* originating_system */ 'Autodesk Translation Framework v11.7.0.108',
/* authorisation */ '');

FILE_SCHEMA (('AUTOMOTIVE_DESIGN { 1 0 10303 214 3 1 1 }'));
ENDSEC;

DATA;
#10=MECHANICAL_DESIGN_GEOMETRIC_PRESENTATION_REPRESENTATION('',(#13),#130);
#11=SHAPE_REPRESENTATION_RELATIONSHIP('SRR','None',#137,#12);
#12=ADVANCED_BREP_SHAPE_REPRESENTATION('',(#14),#129);
#13=STYLED_ITEM('',(#146),#14);
#14=MANIFOLD_SOLID_BREP('Corps1',#68);
#15=FACE_BOUND('',#26,.T.);
#16=PLANE('',#89);
#17=CONICAL_SURFACE('',#85,2.9,0.785398163397448);
#18=FACE_OUTER_BOUND('',#22,.T.);
#19=FACE_OUTER_BOUND('',#23,.T.);
#20=FACE_OUTER_BOUND('',#24,.T.);
#21=FACE_OUTER_BOUND('',#25,.T.);
#22=EDGE_LOOP('',(#48,#49,#50,#51));
#23=EDGE_LOOP('',(#52,#53,#54,#55));
#24=EDGE_LOOP('',(#56,#57,#58,#59));
#25=EDGE_LOOP('',(#60));
#26=EDGE_LOOP('',(#61));
#27=LINE('',#116,#30);
#28=LINE('',#121,#31);
#29=LINE('',#125,#32);
#30=VECTOR('',#96,1.05);
#31=VECTOR('',#103,2.9);
#32=VECTOR('',#108,2.9);
#33=CIRCLE('',#83,1.05);
#34=CIRCLE('',#84,1.05);
#35=CIRCLE('',#86,2.9);
#36=CIRCLE('',#88,2.9);
#37=VERTEX_POINT('',#113);
#38=VERTEX_POINT('',#115);
#39=VERTEX_POINT('',#119);
#40=VERTEX_POINT('',#123);
#41=EDGE_CURVE('',#37,#37,#33,.T.);
#42=EDGE_CURVE('',#37,#38,#27,.T.);
#43=EDGE_CURVE('',#38,#38,#34,.T.);
#44=EDGE_CURVE('',#39,#39,#35,.T.);
#45=EDGE_CURVE('',#39,#38,#28,.T.);
#46=EDGE_CURVE('',#40,#40,#36,.T.);
#47=EDGE_CURVE('',#40,#39,#29,.T.);
#48=ORIENTED_EDGE('',*,*,#41,.F.);
#49=ORIENTED_EDGE('',*,*,#42,.T.);
#50=ORIENTED_EDGE('',*,*,#43,.F.);
#51=ORIENTED_EDGE('',*,*,#42,.F.);
#52=ORIENTED_EDGE('',*,*,#44,.T.);
#53=ORIENTED_EDGE('',*,*,#45,.T.);
#54=ORIENTED_EDGE('',*,*,#43,.T.);
#55=ORIENTED_EDGE('',*,*,#45,.F.);
#56=ORIENTED_EDGE('',*,*,#46,.F.);
#57=ORIENTED_EDGE('',*,*,#47,.T.);
#58=ORIENTED_EDGE('',*,*,#44,.F.);
#59=ORIENTED_EDGE('',*,*,#47,.F.);
#60=ORIENTED_EDGE('',*,*,#46,.T.);
#61=ORIENTED_EDGE('',*,*,#41,.T.);
#62=CYLINDRICAL_SURFACE('',#82,1.05);
#63=CYLINDRICAL_SURFACE('',#87,2.9);
#64=ADVANCED_FACE('',(#18),#62,.F.);
#65=ADVANCED_FACE('',(#19),#17,.T.);
#66=ADVANCED_FACE('',(#20),#63,.T.);
#67=ADVANCED_FACE('',(#21,#15),#16,.T.);
#68=CLOSED_SHELL('',(#64,#65,#66,#67));
#69=DERIVED_UNIT_ELEMENT(#71,1.);
#70=DERIVED_UNIT_ELEMENT(#132,-3.);
#71=(
MASS_UNIT()
NAMED_UNIT(*)
SI_UNIT(.KILO.,.GRAM.)
);
#72=DERIVED_UNIT((#69,#70));
#73=MEASURE_REPRESENTATION_ITEM('density measure',
POSITIVE_RATIO_MEASURE(7850.),#72);
#74=PROPERTY_DEFINITION_REPRESENTATION(#79,#76);
#75=PROPERTY_DEFINITION_REPRESENTATION(#80,#77);
#76=REPRESENTATION('material name',(#78),#129);
#77=REPRESENTATION('density',(#73),#129);
#78=DESCRIPTIVE_REPRESENTATION_ITEM('Acier','Acier');
#79=PROPERTY_DEFINITION('material property','material name',#139);
#80=PROPERTY_DEFINITION('material property','density of part',#139);
#81=AXIS2_PLACEMENT_3D('placement',#111,#90,#91);
#82=AXIS2_PLACEMENT_3D('',#112,#92,#93);
#83=AXIS2_PLACEMENT_3D('',#114,#94,#95);
#84=AXIS2_PLACEMENT_3D('',#117,#97,#98);
#85=AXIS2_PLACEMENT_3D('',#118,#99,#100);
#86=AXIS2_PLACEMENT_3D('',#120,#101,#102);
#87=AXIS2_PLACEMENT_3D('',#122,#104,#105);
#88=AXIS2_PLACEMENT_3D('',#124,#106,#107);
#89=AXIS2_PLACEMENT_3D('',#126,#109,#110);
#90=DIRECTION('axis',(0.,0.,1.));
#91=DIRECTION('refdir',(1.,0.,0.));
#92=DIRECTION('center_axis',(-1.,0.,0.));
#93=DIRECTION('ref_axis',(0.,1.,0.));
#94=DIRECTION('center_axis',(-1.,0.,0.));
#95=DIRECTION('ref_axis',(0.,1.,0.));
#96=DIRECTION('',(-1.,0.,0.));
#97=DIRECTION('center_axis',(1.,0.,0.));
#98=DIRECTION('ref_axis',(0.,1.,0.));
#99=DIRECTION('center_axis',(1.,0.,0.));
#100=DIRECTION('ref_axis',(0.,1.,0.));
#101=DIRECTION('center_axis',(-1.,0.,0.));
#102=DIRECTION('ref_axis',(0.,1.,0.));
#103=DIRECTION('',(-0.707106781186547,0.707106781186548,8.65956056235493E-17));
#104=DIRECTION('center_axis',(1.,0.,0.));
#105=DIRECTION('ref_axis',(0.,1.,0.));
#106=DIRECTION('center_axis',(1.,0.,0.));
#107=DIRECTION('ref_axis',(0.,1.,0.));
#108=DIRECTION('',(-1.,0.,0.));
#109=DIRECTION('center_axis',(1.,0.,0.));
#110=DIRECTION('ref_axis',(0.,1.,0.));
#111=CARTESIAN_POINT('',(0.,0.,0.));
#112=CARTESIAN_POINT('Origin',(4.9,-25.,15.));
#113=CARTESIAN_POINT('',(4.9,-26.05,15.));
#114=CARTESIAN_POINT('Origin',(4.9,-25.,15.));
#115=CARTESIAN_POINT('',(1.05,-26.05,15.));
#116=CARTESIAN_POINT('',(4.9,-26.05,15.));
#117=CARTESIAN_POINT('Origin',(1.05,-25.,15.));
#118=CARTESIAN_POINT('Origin',(2.9,-25.,15.));
#119=CARTESIAN_POINT('',(2.9,-27.9,15.));
#120=CARTESIAN_POINT('Origin',(2.9,-25.,15.));
#121=CARTESIAN_POINT('',(2.9,-27.9,15.));
#122=CARTESIAN_POINT('Origin',(0.,-25.,15.));
#123=CARTESIAN_POINT('',(4.9,-27.9,15.));
#124=CARTESIAN_POINT('Origin',(4.9,-25.,15.));
#125=CARTESIAN_POINT('',(0.,-27.9,15.));
#126=CARTESIAN_POINT('Origin',(4.9,-25.,15.));
#127=UNCERTAINTY_MEASURE_WITH_UNIT(LENGTH_MEASURE(0.01),#131,
'DISTANCE_ACCURACY_VALUE',
'Maximum model space distance between geometric entities at asserted c
onnectivities');
#128=UNCERTAINTY_MEASURE_WITH_UNIT(LENGTH_MEASURE(0.01),#131,
'DISTANCE_ACCURACY_VALUE',
'Maximum model space distance between geometric entities at asserted c
onnectivities');
#129=(
GEOMETRIC_REPRESENTATION_CONTEXT(3)
GLOBAL_UNCERTAINTY_ASSIGNED_CONTEXT((#127))
GLOBAL_UNIT_ASSIGNED_CONTEXT((#131,#133,#134))
REPRESENTATION_CONTEXT('','3D')
);
#130=(
GEOMETRIC_REPRESENTATION_CONTEXT(3)
GLOBAL_UNCERTAINTY_ASSIGNED_CONTEXT((#128))
GLOBAL_UNIT_ASSIGNED_CONTEXT((#131,#133,#134))
REPRESENTATION_CONTEXT('','3D')
);
#131=(
LENGTH_UNIT()
NAMED_UNIT(*)
SI_UNIT(.MILLI.,.METRE.)
);
#132=(
LENGTH_UNIT()
NAMED_UNIT(*)
SI_UNIT($,.METRE.)
);
#133=(
NAMED_UNIT(*)
PLANE_ANGLE_UNIT()
SI_UNIT($,.RADIAN.)
);
#134=(
NAMED_UNIT(*)
SI_UNIT($,.STERADIAN.)
SOLID_ANGLE_UNIT()
);
#135=SHAPE_DEFINITION_REPRESENTATION(#136,#137);
#136=PRODUCT_DEFINITION_SHAPE('',$,#139);
#137=SHAPE_REPRESENTATION('',(#81),#129);
#138=PRODUCT_DEFINITION_CONTEXT('part definition',#143,'design');
#139=PRODUCT_DEFINITION('rondelle web mb ek','rondelle web mb ek v3',#140,
#138);
#140=PRODUCT_DEFINITION_FORMATION('',$,#145);
#141=PRODUCT_RELATED_PRODUCT_CATEGORY('rondelle web mb ek v3',
'rondelle web mb ek v3',(#145));
#142=APPLICATION_PROTOCOL_DEFINITION('international standard',
'automotive_design',2009,#143);
#143=APPLICATION_CONTEXT(
'Core Data for Automotive Mechanical Design Process');
#144=PRODUCT_CONTEXT('part definition',#143,'mechanical');
#145=PRODUCT('rondelle web mb ek','rondelle web mb ek v3',$,(#144));
#146=PRESENTATION_STYLE_ASSIGNMENT((#147));
#147=SURFACE_STYLE_USAGE(.BOTH.,#148);
#148=SURFACE_SIDE_STYLE('',(#149));
#149=SURFACE_STYLE_FILL_AREA(#150);
#150=FILL_AREA_STYLE('Acier - Satin\X\E9',(#151));
#151=FILL_AREA_STYLE_COLOUR('Acier - Satin\X\E9',#152);
#152=COLOUR_RGB('Acier - Satin\X\E9',0.627450980392157,0.627450980392157,
0.627450980392157);
ENDSEC;
END-ISO-10303-21;
