                                                                        S      1
,,,7HAlu2024,33HAutoCAD 2018 - Français (French),62HAutodesk TranslatioG      1
n Framework DWG producer (atf_dwg_producer),32,38,7,99,15,,1.,2,2HMM,1, G      2
0.08,15H20220523.220127,0.01,10000.,,7Hunknown,11,0,15H20220423.094316; G      3
     186       1                       0                        00000000D      1
     186            -121       1       0                               0D      2
     514       2                                                00010000D      3
     514                       1       1                               0D      4
     510       3                                                00010000D      5
     510            -121       1       1                               0D      6
     510       4                                                00010000D      7
     510            -121       1       1                               0D      8
     510       5                                                00010000D      9
     510            -121       1       1                               0D     10
     510       6                                                00010000D     11
     510            -121       1       1                               0D     12
     510       7                                                00010000D     13
     510            -121       1       1                               0D     14
     510       8                                                00010000D     15
     510            -121       1       1                               0D     16
     510       9                                                00010000D     17
     510            -121       1       1                               0D     18
     510      10                                                00010000D     19
     510            -121       1       1                               0D     20
     510      11                                                00010000D     21
     510            -121       1       1                               0D     22
     510      12                                                00010000D     23
     510            -121       1       1                               0D     24
     508      13                                                00010000D     25
     508                       1       1                               0D     26
     508      14                                                00010000D     27
     508                       1       1                               0D     28
     508      15                                                00010000D     29
     508                       1       1                               0D     30
     508      16                                                00010000D     31
     508                       1       1                               0D     32
     508      17                                                00010000D     33
     508                       1       1                               0D     34
     508      18                                                00010000D     35
     508                       1       1                               0D     36
     508      19                                                00010000D     37
     508                       1       1                               0D     38
     508      20                                                00010000D     39
     508                       1       1                               0D     40
     508      21                                                00010000D     41
     508                       2       1                               0D     42
     508      23                                                00010000D     43
     508                       2       1                               0D     44
     126      25                                                00010000D     45
     126       0               2       0                               0D     46
     126      27                                                00010000D     47
     126       0               2       0                               0D     48
     126      29                                                00010000D     49
     126       0               3       0                               0D     50
     126      32                                                00010000D     51
     126       0               3       0                               0D     52
     126      35                                                00010000D     53
     126       0               2       0                               0D     54
     126      37                                                00010000D     55
     126       0               2       0                               0D     56
     126      39                                                00010000D     57
     126       0               2       0                               0D     58
     126      41                                                00010000D     59
     126       0               2       0                               0D     60
     126      43                                                00010000D     61
     126       0               2       0                               0D     62
     126      45                                                00010000D     63
     126       0               2       0                               0D     64
     126      47                                                00010000D     65
     126       0               2       0                               0D     66
     126      49                                                00010000D     67
     126       0               2       0                               0D     68
     126      51                                                00010000D     69
     126       0               2       0                               0D     70
     126      53                                                00010000D     71
     126       0               2       0                               0D     72
     126      55                                                00010000D     73
     126       0               2       0                               0D     74
     126      57                                                00010000D     75
     126       0               2       0                               0D     76
     126      59                                                00010000D     77
     126       0               2       0                               0D     78
     126      61                                                00010000D     79
     126       0               2       0                               0D     80
     126      63                                                00010000D     81
     126       0               2       0                               0D     82
     126      65                                                00010000D     83
     126       0               2       0                               0D     84
     126      67                                                00010000D     85
     126       0               2       0                               0D     86
     126      69                                                00010000D     87
     126       0               2       0                               0D     88
     126      71                                                00010000D     89
     126       0               2       0                               0D     90
     126      73                                                00010000D     91
     126       0               3       0                               0D     92
     128      76                                                00010000D     93
     128       0    -121       5       0                               0D     94
     128      81                                                00010000D     95
     128       0    -121       5       0                               0D     96
     128      86                                                00010000D     97
     128       0    -121       4       0                               0D     98
     128      90                                                00010000D     99
     128       0    -121       4       0                               0D    100
     128      94                                                00010000D    101
     128       0    -121       4       0                               0D    102
     128      98                                                00010000D    103
     128       0    -121       4       0                               0D    104
     128     102                                                00010000D    105
     128       0    -121       4       0                               0D    106
     128     106                                                00010000D    107
     128       0    -121       5       0                               0D    108
     128     111                                                00010000D    109
     128       0    -121       6       0                               0D    110
     128     117                                                00010000D    111
     128       0    -121       6       0                               0D    112
     502     123                                                00010000D    113
     502                       6       1                               0D    114
     504     129                                                00010001D    115
     504                       7       1                               0D    116
     406     136                                                00000000D    117
     406                       1      15                               0D    118
     406     137                       0                        00000000D    119
     406                       1       3                               0D    120
     314     138                                                00000200D    121
     314                       1       0                               0D    122
186,3,1,0,0,1,117;                                                     1P      1
514,10,5,1,7,1,9,1,11,1,13,1,15,1,17,1,19,1,21,1,23,1;                 3P      2
510,93,1,1,25;                                                         5P      3
510,95,1,1,27;                                                         7P      4
510,97,1,1,29;                                                         9P      5
510,99,1,1,31;                                                        11P      6
510,101,1,1,33;                                                       13P      7
510,103,1,1,35;                                                       15P      8
510,105,1,1,37;                                                       17P      9
510,107,1,1,39;                                                       19P     10
510,109,1,1,41;                                                       21P     11
510,111,1,1,43;                                                       23P     12
508,4,0,115,1,0,0,0,115,2,1,0,0,115,3,0,0,0,115,4,0,0;                25P     13
508,4,0,115,5,0,0,0,115,4,1,0,0,115,6,0,0,0,115,7,0,0;                27P     14
508,4,0,115,8,0,0,0,115,7,1,0,0,115,9,0,0,0,115,10,0,0;               29P     15
508,4,0,115,11,0,0,0,115,10,1,0,0,115,12,0,0,0,115,13,0,0;            31P     16
508,4,0,115,14,0,0,0,115,13,1,0,0,115,15,0,0,0,115,16,0,0;            33P     17
508,4,0,115,17,0,0,0,115,16,1,0,0,115,18,0,0,0,115,19,0,0;            35P     18
508,4,0,115,20,0,0,0,115,19,1,0,0,115,21,0,0,0,115,22,0,0;            37P     19
508,4,0,115,23,0,0,0,115,22,1,0,0,115,24,0,0,0,115,2,0,0;             39P     20
508,8,0,115,23,1,0,0,115,1,1,0,0,115,5,1,0,0,115,8,1,0,0,115,11,      41P     21
1,0,0,115,14,1,0,0,115,17,1,0,0,115,20,1,0;                           41P     22
508,8,0,115,24,1,0,0,115,21,1,0,0,115,18,1,0,0,115,15,1,0,0,115,      43P     23
12,1,0,0,115,9,1,0,0,115,6,1,0,0,115,3,1,0;                           43P     24
126,1,1,0,0,1,0,0.,0.,14.4,14.4,1.,1.,1.60000000000002,16.,0.,        45P     25
1.60000000000002,1.59999999999999,0.,0.,14.4,0.,0.,0.;                45P     26
126,1,1,0,0,1,0,0.,0.,204.,204.,1.,1.,1.60000000000002,16.,0.,        47P     27
1.60000000000002,16.,204.,0.,204.,0.,0.,0.;                           47P     28
126,1,1,0,0,1,0,-14.4,-14.4,0.,0.,1.,1.,1.60000000000002,             49P     29
1.59999999999999,204.,1.60000000000002,16.,204.,-14.4,0.,0.,0.,       49P     30
0.;                                                                   49P     31
126,1,1,0,0,1,0,0.,0.,204.,204.,1.,1.,1.60000000000002,               51P     32
1.59999999999999,0.,1.60000000000002,1.59999999999999,204.,0.,        51P     33
204.,0.,0.,0.;                                                        51P     34
126,1,1,0,0,1,0,0.,0.,21.8,21.8,1.,1.,1.60000000000002,               53P     35
1.59999999999999,0.,23.4,1.59999999999999,0.,0.,21.8,0.,0.,0.;        53P     36
126,1,1,0,0,1,0,-21.8,-21.8,0.,0.,1.,1.,23.4,1.59999999999999,        55P     37
204.,1.60000000000002,1.59999999999999,204.,-21.8,0.,0.,0.,0.;        55P     38
126,1,1,0,0,1,0,0.,0.,204.,204.,1.,1.,23.4,1.59999999999999,0.,       57P     39
23.4,1.59999999999999,204.,0.,204.,0.,0.,0.;                          57P     40
126,1,1,0,0,1,0,0.,0.,14.4,14.4,1.,1.,23.4,1.59999999999999,0.,       59P     41
23.4,16.,0.,0.,14.4,0.,0.,0.;                                         59P     42
126,1,1,0,0,1,0,-14.4,-14.4,0.,0.,1.,1.,23.4,16.,204.,23.4,           61P     43
1.59999999999999,204.,-14.4,0.,0.,0.,0.;                              61P     44
126,1,1,0,0,1,0,0.,0.,204.,204.,1.,1.,23.4,16.,0.,23.4,16.,204.,      63P     45
0.,204.,0.,0.,0.;                                                     63P     46
126,1,1,0,0,1,0,0.,0.,1.60000000000002,1.60000000000002,1.,1.,        65P     47
23.4,16.,0.,25.,16.,0.,0.,1.60000000000002,0.,0.,0.;                  65P     48
126,1,1,0,0,1,0,-1.60000000000002,-1.60000000000002,0.,0.,1.,1.,      67P     49
25.,16.,204.,23.4,16.,204.,-1.60000000000002,0.,0.,0.,0.;             67P     50
126,1,1,0,0,1,0,0.,0.,204.,204.,1.,1.,25.,16.,0.,25.,16.,204.,        69P     51
0.,204.,0.,0.,0.;                                                     69P     52
126,1,1,0,0,1,0,0.,0.,16.,16.,1.,1.,25.,16.,0.,25.,0.,0.,0.,16.,      71P     53
0.,0.,0.;                                                             71P     54
126,1,1,0,0,1,0,-16.,-16.,0.,0.,1.,1.,25.,0.,204.,25.,16.,204.,       73P     55
-16.,0.,0.,0.,0.;                                                     73P     56
126,1,1,0,0,1,0,0.,0.,204.,204.,1.,1.,25.,0.,0.,25.,0.,204.,0.,       75P     57
204.,0.,0.,0.;                                                        75P     58
126,1,1,0,0,1,0,0.,0.,25.,25.,1.,1.,25.,0.,0.,0.,0.,0.,0.,25.,        77P     59
0.,0.,0.;                                                             77P     60
126,1,1,0,0,1,0,-25.,-25.,0.,0.,1.,1.,0.,0.,204.,25.,0.,204.,         79P     61
-25.,0.,0.,0.,0.;                                                     79P     62
126,1,1,0,0,1,0,0.,0.,204.,204.,1.,1.,0.,0.,0.,0.,0.,204.,0.,         81P     63
204.,0.,0.,0.;                                                        81P     64
126,1,1,0,0,1,0,0.,0.,16.,16.,1.,1.,0.,0.,0.,0.,16.,0.,0.,16.,        83P     65
0.,0.,0.;                                                             83P     66
126,1,1,0,0,1,0,-16.,-16.,0.,0.,1.,1.,0.,16.,204.,0.,0.,204.,         85P     67
-16.,0.,0.,0.,0.;                                                     85P     68
126,1,1,0,0,1,0,0.,0.,204.,204.,1.,1.,0.,16.,0.,0.,16.,204.,0.,       87P     69
204.,0.,0.,0.;                                                        87P     70
126,1,1,0,0,1,0,0.,0.,1.60000000000002,1.60000000000002,1.,1.,        89P     71
0.,16.,0.,1.60000000000002,16.,0.,0.,1.60000000000002,0.,0.,0.;       89P     72
126,1,1,0,0,1,0,-1.60000000000002,-1.60000000000002,0.,0.,1.,1.,      91P     73
1.60000000000002,16.,204.,0.,16.,204.,-1.60000000000002,0.,0.,        91P     74
0.,0.;                                                                91P     75
128,1,1,1,1,0,0,1,0,0,-0.001,-0.001,14.401,14.401,-0.001,-0.001,      93P     76
204.001,204.001,1.,1.,1.,1.,1.60000000000002,1.59899999999999,        93P     77
-0.001,1.60000000000002,16.001,-0.001,1.60000000000002,               93P     78
1.59899999999999,204.001,1.60000000000002,16.001,204.001,-0.001,      93P     79
14.401,-0.001,204.001;                                                93P     80
128,1,1,1,1,0,0,1,0,0,-0.001,-0.001,21.801,21.801,-0.001,-0.001,      95P     81
204.001,204.001,1.,1.,1.,1.,23.401,1.59999999999999,-0.001,           95P     82
1.59900000000002,1.59999999999999,-0.001,23.401,                      95P     83
1.59999999999999,204.001,1.59900000000002,1.59999999999999,           95P     84
204.001,-0.001,21.801,-0.001,204.001;                                 95P     85
128,1,1,1,1,0,0,1,0,0,-0.001,-0.001,14.401,14.401,-0.001,-0.001,      97P     86
204.001,204.001,1.,1.,1.,1.,23.4,16.001,-0.001,23.4,1.599,            97P     87
-0.001,23.4,16.001,204.001,23.4,1.59899999999999,204.001,-0.001,      97P     88
14.401,-0.001,204.001;                                                97P     89
128,1,1,1,1,0,0,1,0,0,-0.001,-0.001,1.60100000000002,                 99P     90
1.60100000000002,-0.001,-0.001,204.001,204.001,1.,1.,1.,1.,           99P     91
25.001,16.,-0.001,23.399,16.,-0.001,25.001,16.,204.001,23.399,        99P     92
16.,204.001,-0.001,1.60100000000002,-0.001,204.001;                   99P     93
128,1,1,1,1,0,0,1,0,0,-0.001,-0.001,16.001,16.001,-0.001,-0.001,     101P     94
204.001,204.001,1.,1.,1.,1.,25.,-0.001,-0.001,25.,16.001,-0.001,     101P     95
25.,-0.001,204.001,25.,16.001,204.001,-0.001,16.001,-0.001,          101P     96
204.001;                                                             101P     97
128,1,1,1,1,0,0,1,0,0,-0.001,-0.001,25.001,25.001,-0.001,-0.001,     103P     98
204.001,204.001,1.,1.,1.,1.,-0.001,0.,-0.001,25.001,0.,-0.001,       103P     99
-0.001,0.,204.001,25.001,0.,204.001,-0.001,25.001,-0.001,            103P    100
204.001;                                                             103P    101
128,1,1,1,1,0,0,1,0,0,-0.001,-0.001,16.001,16.001,-0.001,-0.001,     105P    102
204.001,204.001,1.,1.,1.,1.,0.,16.001,-0.001,0.,                     105P    103
-0.00100000000000122,-0.001,0.,16.001,204.001,0.,                    105P    104
-0.00100000000000122,204.001,-0.001,16.001,-0.001,204.001;           105P    105
128,1,1,1,1,0,0,1,0,0,-0.001,-0.001,1.60100000000002,                107P    106
1.60100000000002,-0.001,-0.001,204.001,204.001,1.,1.,1.,1.,          107P    107
1.60100000000002,16.,-0.001,-0.00099999999999989,16.,-0.001,         107P    108
1.60100000000002,16.,204.001,-0.00099999999999989,16.,204.001,       107P    109
-0.001,1.60100000000002,-0.001,204.001;                              107P    110
128,1,1,1,1,0,0,1,0,0,-12.501,-12.501,12.501,12.501,                 109P    111
-5.37572924187726,-5.37572924187726,10.6262707581227,                109P    112
10.6262707581227,1.,1.,1.,1.,25.001,-0.00100000000000033,0.,         109P    113
-0.000999999999999446,-0.00100000000000033,0.,25.001,16.001,0.,      109P    114
-0.000999999999999446,16.001,0.,-12.501,12.501,                      109P    115
-5.37572924187726,10.6262707581227;                                  109P    116
128,1,1,1,1,0,0,1,0,0,-12.501,-12.501,12.501,12.501,                 111P    117
-5.37572924187726,-5.37572924187726,10.6262707581227,                111P    118
10.6262707581227,1.,1.,1.,1.,-0.000999999999999446,                  111P    119
-0.00100000000000033,204.,25.001,-0.00100000000000033,204.,          111P    120
-0.000999999999999446,16.001,204.,25.001,16.001,204.,-12.501,        111P    121
12.501,-5.37572924187726,10.6262707581227;                           111P    122
502,16,1.60000000000002,16.,0.,1.60000000000002,                     113P    123
1.59999999999999,0.,1.60000000000002,16.,204.,1.60000000000002,      113P    124
1.59999999999999,204.,23.4,1.59999999999999,0.,23.4,                 113P    125
1.59999999999999,204.,23.4,16.,0.,23.4,16.,204.,25.,16.,0.,25.,      113P    126
16.,204.,25.,0.,0.,25.,0.,204.,0.,0.,0.,0.,0.,204.,0.,16.,0.,0.,     113P    127
16.,204.;                                                            113P    128
504,24,45,113,1,113,2,47,113,1,113,3,49,113,4,113,3,51,113,2,        115P    129
113,4,53,113,2,113,5,55,113,6,113,4,57,113,5,113,6,59,113,5,113,     115P    130
7,61,113,8,113,6,63,113,7,113,8,65,113,7,113,9,67,113,10,113,8,      115P    131
69,113,9,113,10,71,113,9,113,11,73,113,12,113,10,75,113,11,113,      115P    132
12,77,113,11,113,13,79,113,14,113,12,81,113,13,113,14,83,113,13,     115P    133
113,15,85,113,16,113,14,87,113,15,113,16,89,113,15,113,1,91,113,     115P    134
3,113,16;                                                            115P    135
406,1,2H5C;                                                          117P    136
406,2,0,1H0;                                                         119P    137
314,100.,100.,100.,;                                                 121P    138
S      1G      3D    122P    138                                        T      1
