ISO-10303-21;
HEADER;
/* Generated by software containing ST-Developer
 * from STEP Tools, Inc. (www.steptools.com) 
 */

FILE_DESCRIPTION(
/* description */ (''),
/* implementation_level */ '2;1');

FILE_NAME(
/* name */ 'C:/Users/Arthur Le Ber/Downloads/Droplet10mm.step',
/* time_stamp */ '2022-05-10T10:48:40+02:00',
/* author */ (''),
/* organization */ (''),
/* preprocessor_version */ 'ST-DEVELOPER v18.1',
/* originating_system */ 'Autodesk Translation Framework v10.14.0.1471',

/* authorisation */ '');

FILE_SCHEMA (('AUTOMOTIVE_DESIGN { 1 0 10303 214 3 1 1 }'));
ENDSEC;

DATA;
#10=MECHANICAL_DESIGN_GEOMETRIC_PRESENTATION_REPRESENTATION('',(#13),#108);
#11=SHAPE_REPRESENTATION_RELATIONSHIP('SRR','None',#115,#12);
#12=ADVANCED_BREP_SHAPE_REPRESENTATION('',(#14),#107);
#13=STYLED_ITEM('',(#124),#14);
#14=MANIFOLD_SOLID_BREP('Corps10',#41);
#15=(
BOUNDED_SURFACE()
B_SPLINE_SURFACE(2,2,((#76,#77,#78,#79,#80,#81,#82,#83,#84),(#85,#86,#87,
#88,#89,#90,#91,#92,#93),(#94,#95,#96,#97,#98,#99,#100,#101,#102)),
 .UNSPECIFIED.,.F.,.T.,.F.)
B_SPLINE_SURFACE_WITH_KNOTS((3,3),(3,2,2,2,3),(0.126340127569104,1.04719755119657),
(-3.14159265358979,-1.5707963267949,0.,1.5707963267949,3.14159265358979),
 .UNSPECIFIED.)
GEOMETRIC_REPRESENTATION_ITEM()
RATIONAL_B_SPLINE_SURFACE(((1.,0.707106781186548,1.,0.707106781186548,1.,
0.707106781186548,1.,0.707106781186548,1.),(0.895862089388762,0.633470158414742,
0.895862089388762,0.633470158414742,0.895862089388762,0.633470158414742,
0.895862089388762,0.633470158414742,0.895862089388762),(1.,0.707106781186548,
1.,0.707106781186548,1.,0.707106781186548,1.,0.707106781186548,1.)))
REPRESENTATION_ITEM('')
SURFACE()
);
#16=FACE_BOUND('',#20,.T.);
#17=FACE_OUTER_BOUND('',#19,.T.);
#18=FACE_OUTER_BOUND('',#21,.T.);
#19=EDGE_LOOP('',(#32,#33));
#20=EDGE_LOOP('',(#34));
#21=EDGE_LOOP('',(#35,#36,#37));
#22=CIRCLE('',#56,5.);
#23=CIRCLE('',#57,4.96014848133832);
#24=CIRCLE('',#58,10.0809941330101);
#25=VERTEX_POINT('',#71);
#26=VERTEX_POINT('',#72);
#27=VERTEX_POINT('',#74);
#28=VERTEX_POINT('',#103);
#29=EDGE_CURVE('',#25,#26,#22,.T.);
#30=EDGE_CURVE('',#27,#27,#23,.T.);
#31=EDGE_CURVE('',#28,#27,#24,.T.);
#32=ORIENTED_EDGE('',*,*,#29,.T.);
#33=ORIENTED_EDGE('',*,*,#29,.F.);
#34=ORIENTED_EDGE('',*,*,#30,.F.);
#35=ORIENTED_EDGE('',*,*,#31,.T.);
#36=ORIENTED_EDGE('',*,*,#30,.T.);
#37=ORIENTED_EDGE('',*,*,#31,.F.);
#38=SPHERICAL_SURFACE('',#55,5.);
#39=ADVANCED_FACE('',(#17,#16),#38,.T.);
#40=ADVANCED_FACE('',(#18),#15,.F.);
#41=CLOSED_SHELL('',(#39,#40));
#42=DERIVED_UNIT_ELEMENT(#44,1.);
#43=DERIVED_UNIT_ELEMENT(#110,-3.);
#44=(
MASS_UNIT()
NAMED_UNIT(*)
SI_UNIT(.KILO.,.GRAM.)
);
#45=DERIVED_UNIT((#42,#43));
#46=MEASURE_REPRESENTATION_ITEM('density measure',
POSITIVE_RATIO_MEASURE(7850.),#45);
#47=PROPERTY_DEFINITION_REPRESENTATION(#52,#49);
#48=PROPERTY_DEFINITION_REPRESENTATION(#53,#50);
#49=REPRESENTATION('material name',(#51),#107);
#50=REPRESENTATION('density',(#46),#107);
#51=DESCRIPTIVE_REPRESENTATION_ITEM('Acier','Acier');
#52=PROPERTY_DEFINITION('material property','material name',#117);
#53=PROPERTY_DEFINITION('material property','density of part',#117);
#54=AXIS2_PLACEMENT_3D('placement',#69,#59,#60);
#55=AXIS2_PLACEMENT_3D('',#70,#61,#62);
#56=AXIS2_PLACEMENT_3D('',#73,#63,#64);
#57=AXIS2_PLACEMENT_3D('',#75,#65,#66);
#58=AXIS2_PLACEMENT_3D('',#104,#67,#68);
#59=DIRECTION('axis',(0.,0.,1.));
#60=DIRECTION('refdir',(1.,0.,0.));
#61=DIRECTION('center_axis',(6.12323399573677E-17,0.,1.));
#62=DIRECTION('ref_axis',(1.,0.,0.));
#63=DIRECTION('center_axis',(1.22464679914735E-16,-1.,0.));
#64=DIRECTION('ref_axis',(-1.,-1.22464679914735E-16,0.));
#65=DIRECTION('center_axis',(-6.66133814775094E-16,1.,0.));
#66=DIRECTION('ref_axis',(1.,6.66133814775094E-16,0.));
#67=DIRECTION('center_axis',(-1.,-6.66133814775094E-16,1.22464679914735E-16));
#68=DIRECTION('ref_axis',(-1.22464679914735E-16,0.,-1.));
#69=CARTESIAN_POINT('',(0.,0.,0.));
#70=CARTESIAN_POINT('Origin',(0.,0.,0.));
#71=CARTESIAN_POINT('',(-3.06161699786838E-16,-3.74939945665464E-32,5.));
#72=CARTESIAN_POINT('',(-3.06161699786838E-16,-3.74939945665464E-32,-5.));
#73=CARTESIAN_POINT('Origin',(0.,0.,0.));
#74=CARTESIAN_POINT('',(-1.20315291995208E-15,0.630021462394065,-4.96014848133832));
#75=CARTESIAN_POINT('Origin',(-5.95709923855422E-16,0.630021462394065,0.));
#76=CARTESIAN_POINT('Ctrl Pts',(-5.95709923855422E-16,0.630021462394065,
-4.96014848133832));
#77=CARTESIAN_POINT('Ctrl Pts',(-4.96014848133832,0.630021462394062,-4.96014848133832));
#78=CARTESIAN_POINT('Ctrl Pts',(-4.96014848133832,0.630021462394062,-1.23259516440783E-31));
#79=CARTESIAN_POINT('Ctrl Pts',(-4.96014848133832,0.630021462394062,4.96014848133832));
#80=CARTESIAN_POINT('Ctrl Pts',(-5.95709923855422E-16,0.630021462394065,
4.96014848133832));
#81=CARTESIAN_POINT('Ctrl Pts',(4.96014848133832,0.630021462394069,4.96014848133832));
#82=CARTESIAN_POINT('Ctrl Pts',(4.96014848133832,0.630021462394069,1.23259516440783E-31));
#83=CARTESIAN_POINT('Ctrl Pts',(4.96014848133832,0.630021462394069,-4.96014848133832));
#84=CARTESIAN_POINT('Ctrl Pts',(-5.95709923855422E-16,0.630021462394065,
-4.96014848133832));
#85=CARTESIAN_POINT('Ctrl Pts',(-3.89983255358745E-15,5.59016994374326,
-4.33012701893273));
#86=CARTESIAN_POINT('Ctrl Pts',(-4.33012701893274,5.59016994374326,-4.33012701893273));
#87=CARTESIAN_POINT('Ctrl Pts',(-4.33012701893274,5.59016994374326,-4.93038065763132E-31));
#88=CARTESIAN_POINT('Ctrl Pts',(-4.33012701893274,5.59016994374326,4.33012701893273));
#89=CARTESIAN_POINT('Ctrl Pts',(-3.89983255358745E-15,5.59016994374326,
4.33012701893273));
#90=CARTESIAN_POINT('Ctrl Pts',(4.33012701893273,5.59016994374326,4.33012701893273));
#91=CARTESIAN_POINT('Ctrl Pts',(4.33012701893273,5.59016994374326,4.93038065763132E-31));
#92=CARTESIAN_POINT('Ctrl Pts',(4.33012701893273,5.59016994374326,-4.33012701893273));
#93=CARTESIAN_POINT('Ctrl Pts',(-3.89983255358745E-15,5.59016994374326,
-4.33012701893273));
#94=CARTESIAN_POINT('Ctrl Pts',(-5.56516709052933E-15,8.09016994374948,
1.11022302462516E-15));
#95=CARTESIAN_POINT('Ctrl Pts',(-4.45494406590417E-15,8.09016994374948,
1.11022302462516E-15));
#96=CARTESIAN_POINT('Ctrl Pts',(-4.45494406590417E-15,8.09016994374948,
0.));
#97=CARTESIAN_POINT('Ctrl Pts',(-4.45494406590417E-15,8.09016994374948,
-1.11022302462516E-15));
#98=CARTESIAN_POINT('Ctrl Pts',(-5.56516709052933E-15,8.09016994374948,
-1.11022302462516E-15));
#99=CARTESIAN_POINT('Ctrl Pts',(-6.67539011515448E-15,8.09016994374948,
-1.11022302462516E-15));
#100=CARTESIAN_POINT('Ctrl Pts',(-6.67539011515448E-15,8.09016994374948,
0.));
#101=CARTESIAN_POINT('Ctrl Pts',(-6.67539011515448E-15,8.09016994374948,
1.11022302462516E-15));
#102=CARTESIAN_POINT('Ctrl Pts',(-5.56516709052933E-15,8.09016994374948,
1.11022302462516E-15));
#103=CARTESIAN_POINT('',(-6.31084774397939E-15,8.09016994374947,0.));
#104=CARTESIAN_POINT('Origin',(8.67728437160356E-16,-0.640227070839058,
5.04049706650526));
#105=UNCERTAINTY_MEASURE_WITH_UNIT(LENGTH_MEASURE(0.01),#109,
'DISTANCE_ACCURACY_VALUE',
'Maximum model space distance between geometric entities at asserted c
onnectivities');
#106=UNCERTAINTY_MEASURE_WITH_UNIT(LENGTH_MEASURE(0.01),#109,
'DISTANCE_ACCURACY_VALUE',
'Maximum model space distance between geometric entities at asserted c
onnectivities');
#107=(
GEOMETRIC_REPRESENTATION_CONTEXT(3)
GLOBAL_UNCERTAINTY_ASSIGNED_CONTEXT((#105))
GLOBAL_UNIT_ASSIGNED_CONTEXT((#109,#111,#112))
REPRESENTATION_CONTEXT('','3D')
);
#108=(
GEOMETRIC_REPRESENTATION_CONTEXT(3)
GLOBAL_UNCERTAINTY_ASSIGNED_CONTEXT((#106))
GLOBAL_UNIT_ASSIGNED_CONTEXT((#109,#111,#112))
REPRESENTATION_CONTEXT('','3D')
);
#109=(
LENGTH_UNIT()
NAMED_UNIT(*)
SI_UNIT(.MILLI.,.METRE.)
);
#110=(
LENGTH_UNIT()
NAMED_UNIT(*)
SI_UNIT($,.METRE.)
);
#111=(
NAMED_UNIT(*)
PLANE_ANGLE_UNIT()
SI_UNIT($,.RADIAN.)
);
#112=(
NAMED_UNIT(*)
SI_UNIT($,.STERADIAN.)
SOLID_ANGLE_UNIT()
);
#113=SHAPE_DEFINITION_REPRESENTATION(#114,#115);
#114=PRODUCT_DEFINITION_SHAPE('',$,#117);
#115=SHAPE_REPRESENTATION('',(#54),#107);
#116=PRODUCT_DEFINITION_CONTEXT('part definition',#121,'design');
#117=PRODUCT_DEFINITION('Round Droplet','Round Droplet v3',#118,#116);
#118=PRODUCT_DEFINITION_FORMATION('',$,#123);
#119=PRODUCT_RELATED_PRODUCT_CATEGORY('Round Droplet v3',
'Round Droplet v3',(#123));
#120=APPLICATION_PROTOCOL_DEFINITION('international standard',
'automotive_design',2009,#121);
#121=APPLICATION_CONTEXT(
'Core Data for Automotive Mechanical Design Process');
#122=PRODUCT_CONTEXT('part definition',#121,'mechanical');
#123=PRODUCT('Round Droplet','Round Droplet v3',$,(#122));
#124=PRESENTATION_STYLE_ASSIGNMENT((#125));
#125=SURFACE_STYLE_USAGE(.BOTH.,#126);
#126=SURFACE_SIDE_STYLE('',(#127));
#127=SURFACE_STYLE_FILL_AREA(#128);
#128=FILL_AREA_STYLE('Acier - Satin\X\E9',(#129));
#129=FILL_AREA_STYLE_COLOUR('Acier - Satin\X\E9',#130);
#130=COLOUR_RGB('Acier - Satin\X\E9',0.627450980392157,0.627450980392157,
0.627450980392157);
ENDSEC;
END-ISO-10303-21;
