ISO-10303-21;
HEADER;
/* Generated by software containing ST-Developer
 * from STEP Tools, Inc. (www.steptools.com) 
 */

FILE_DESCRIPTION(
/* description */ (''),
/* implementation_level */ '2;1');

FILE_NAME(
/* name */ 'C:/Users/tutur/Downloads/Sans nom v1.step',
/* time_stamp */ '2022-05-27T02:00:38+02:00',
/* author */ (''),
/* organization */ (''),
/* preprocessor_version */ 'ST-DEVELOPER v18.1',
/* originating_system */ 'Autodesk Translation Framework v10.10.0.1391',

/* authorisation */ '');

FILE_SCHEMA (('AUTOMOTIVE_DESIGN { 1 0 10303 214 3 1 1 }'));
ENDSEC;

DATA;
#10=MECHANICAL_DESIGN_GEOMETRIC_PRESENTATION_REPRESENTATION('',(#13),#172);
#11=SHAPE_REPRESENTATION_RELATIONSHIP('SRR','None',#179,#12);
#12=ADVANCED_BREP_SHAPE_REPRESENTATION('',(#14),#171);
#13=STYLED_ITEM('',(#188),#14);
#14=MANIFOLD_SOLID_BREP('Corps1',#88);
#15=PLANE('',#114);
#16=TOROIDAL_SURFACE('',#106,9.5,6.);
#17=TOROIDAL_SURFACE('',#111,9.5,6.);
#18=CYLINDRICAL_SURFACE('',#104,10.);
#19=CYLINDRICAL_SURFACE('',#109,15.5);
#20=FACE_OUTER_BOUND('',#26,.T.);
#21=FACE_OUTER_BOUND('',#27,.T.);
#22=FACE_OUTER_BOUND('',#28,.T.);
#23=FACE_OUTER_BOUND('',#29,.T.);
#24=FACE_OUTER_BOUND('',#30,.T.);
#25=FACE_OUTER_BOUND('',#31,.T.);
#26=EDGE_LOOP('',(#61,#62,#63));
#27=EDGE_LOOP('',(#64,#65,#66,#67));
#28=EDGE_LOOP('',(#68,#69,#70,#71));
#29=EDGE_LOOP('',(#72,#73,#74,#75));
#30=EDGE_LOOP('',(#76,#77,#78,#79));
#31=EDGE_LOOP('',(#80));
#32=LINE('',#151,#35);
#33=LINE('',#155,#36);
#34=LINE('',#162,#37);
#35=VECTOR('',#121,5.);
#36=VECTOR('',#126,10.);
#37=VECTOR('',#135,15.5);
#38=CIRCLE('',#103,10.);
#39=CIRCLE('',#105,10.);
#40=CIRCLE('',#107,6.);
#41=CIRCLE('',#108,15.5);
#42=CIRCLE('',#110,15.5);
#43=CIRCLE('',#112,6.);
#44=CIRCLE('',#113,9.5);
#45=VERTEX_POINT('',#148);
#46=VERTEX_POINT('',#150);
#47=VERTEX_POINT('',#153);
#48=VERTEX_POINT('',#157);
#49=VERTEX_POINT('',#161);
#50=VERTEX_POINT('',#165);
#51=EDGE_CURVE('',#45,#45,#38,.T.);
#52=EDGE_CURVE('',#45,#46,#32,.T.);
#53=EDGE_CURVE('',#47,#47,#39,.T.);
#54=EDGE_CURVE('',#47,#45,#33,.T.);
#55=EDGE_CURVE('',#47,#48,#40,.T.);
#56=EDGE_CURVE('',#48,#48,#41,.T.);
#57=EDGE_CURVE('',#48,#49,#34,.T.);
#58=EDGE_CURVE('',#49,#49,#42,.T.);
#59=EDGE_CURVE('',#49,#50,#43,.T.);
#60=EDGE_CURVE('',#50,#50,#44,.T.);
#61=ORIENTED_EDGE('',*,*,#51,.F.);
#62=ORIENTED_EDGE('',*,*,#52,.T.);
#63=ORIENTED_EDGE('',*,*,#52,.F.);
#64=ORIENTED_EDGE('',*,*,#53,.F.);
#65=ORIENTED_EDGE('',*,*,#54,.T.);
#66=ORIENTED_EDGE('',*,*,#51,.T.);
#67=ORIENTED_EDGE('',*,*,#54,.F.);
#68=ORIENTED_EDGE('',*,*,#53,.T.);
#69=ORIENTED_EDGE('',*,*,#55,.T.);
#70=ORIENTED_EDGE('',*,*,#56,.T.);
#71=ORIENTED_EDGE('',*,*,#55,.F.);
#72=ORIENTED_EDGE('',*,*,#56,.F.);
#73=ORIENTED_EDGE('',*,*,#57,.T.);
#74=ORIENTED_EDGE('',*,*,#58,.F.);
#75=ORIENTED_EDGE('',*,*,#57,.F.);
#76=ORIENTED_EDGE('',*,*,#58,.T.);
#77=ORIENTED_EDGE('',*,*,#59,.T.);
#78=ORIENTED_EDGE('',*,*,#60,.T.);
#79=ORIENTED_EDGE('',*,*,#59,.F.);
#80=ORIENTED_EDGE('',*,*,#60,.F.);
#81=CONICAL_SURFACE('',#102,5.,1.02974425867665);
#82=ADVANCED_FACE('',(#20),#81,.F.);
#83=ADVANCED_FACE('',(#21),#18,.F.);
#84=ADVANCED_FACE('',(#22),#16,.T.);
#85=ADVANCED_FACE('',(#23),#19,.T.);
#86=ADVANCED_FACE('',(#24),#17,.T.);
#87=ADVANCED_FACE('',(#25),#15,.F.);
#88=CLOSED_SHELL('',(#82,#83,#84,#85,#86,#87));
#89=DERIVED_UNIT_ELEMENT(#91,1.);
#90=DERIVED_UNIT_ELEMENT(#174,-3.);
#91=(
MASS_UNIT()
NAMED_UNIT(*)
SI_UNIT(.KILO.,.GRAM.)
);
#92=DERIVED_UNIT((#89,#90));
#93=MEASURE_REPRESENTATION_ITEM('density measure',
POSITIVE_RATIO_MEASURE(7850.),#92);
#94=PROPERTY_DEFINITION_REPRESENTATION(#99,#96);
#95=PROPERTY_DEFINITION_REPRESENTATION(#100,#97);
#96=REPRESENTATION('material name',(#98),#171);
#97=REPRESENTATION('density',(#93),#171);
#98=DESCRIPTIVE_REPRESENTATION_ITEM('Acier','Acier');
#99=PROPERTY_DEFINITION('material property','material name',#181);
#100=PROPERTY_DEFINITION('material property','density of part',#181);
#101=AXIS2_PLACEMENT_3D('placement',#146,#115,#116);
#102=AXIS2_PLACEMENT_3D('',#147,#117,#118);
#103=AXIS2_PLACEMENT_3D('',#149,#119,#120);
#104=AXIS2_PLACEMENT_3D('',#152,#122,#123);
#105=AXIS2_PLACEMENT_3D('',#154,#124,#125);
#106=AXIS2_PLACEMENT_3D('',#156,#127,#128);
#107=AXIS2_PLACEMENT_3D('',#158,#129,#130);
#108=AXIS2_PLACEMENT_3D('',#159,#131,#132);
#109=AXIS2_PLACEMENT_3D('',#160,#133,#134);
#110=AXIS2_PLACEMENT_3D('',#163,#136,#137);
#111=AXIS2_PLACEMENT_3D('',#164,#138,#139);
#112=AXIS2_PLACEMENT_3D('',#166,#140,#141);
#113=AXIS2_PLACEMENT_3D('',#167,#142,#143);
#114=AXIS2_PLACEMENT_3D('',#168,#144,#145);
#115=DIRECTION('axis',(0.,0.,1.));
#116=DIRECTION('refdir',(1.,0.,0.));
#117=DIRECTION('center_axis',(0.,0.,1.));
#118=DIRECTION('ref_axis',(1.,0.,0.));
#119=DIRECTION('center_axis',(0.,0.,-1.));
#120=DIRECTION('ref_axis',(1.,0.,0.));
#121=DIRECTION('',(0.857167300702112,-1.04972719113862E-16,-0.515038074910054));
#122=DIRECTION('center_axis',(0.,0.,-1.));
#123=DIRECTION('ref_axis',(1.,0.,0.));
#124=DIRECTION('center_axis',(0.,0.,-1.));
#125=DIRECTION('ref_axis',(1.,0.,0.));
#126=DIRECTION('',(0.,0.,-1.));
#127=DIRECTION('center_axis',(0.,0.,1.));
#128=DIRECTION('ref_axis',(1.,0.,0.));
#129=DIRECTION('center_axis',(1.43254583822601E-16,-1.,0.));
#130=DIRECTION('ref_axis',(-1.,-1.43254583822601E-16,0.));
#131=DIRECTION('center_axis',(0.,0.,1.));
#132=DIRECTION('ref_axis',(1.,0.,0.));
#133=DIRECTION('center_axis',(0.,0.,1.));
#134=DIRECTION('ref_axis',(1.,0.,0.));
#135=DIRECTION('',(0.,0.,-1.));
#136=DIRECTION('center_axis',(0.,0.,-1.));
#137=DIRECTION('ref_axis',(1.,0.,0.));
#138=DIRECTION('center_axis',(0.,0.,1.));
#139=DIRECTION('ref_axis',(1.,0.,0.));
#140=DIRECTION('center_axis',(1.43254583822601E-16,-1.,0.));
#141=DIRECTION('ref_axis',(-1.,-1.43254583822601E-16,0.));
#142=DIRECTION('center_axis',(0.,0.,1.));
#143=DIRECTION('ref_axis',(1.,0.,0.));
#144=DIRECTION('center_axis',(0.,0.,1.));
#145=DIRECTION('ref_axis',(1.,0.,0.));
#146=CARTESIAN_POINT('',(0.,0.,0.));
#147=CARTESIAN_POINT('Origin',(10.6691986454842,11.2435848492906,177.495696904862));
#148=CARTESIAN_POINT('',(0.669198645484189,11.2435848492906,180.5));
#149=CARTESIAN_POINT('Origin',(10.6691986454842,11.2435848492906,180.5));
#150=CARTESIAN_POINT('',(10.6691986454842,11.2435848492906,174.491393809724));
#151=CARTESIAN_POINT('',(5.6691986454842,11.2435848492906,177.495696904862));
#152=CARTESIAN_POINT('Origin',(10.6691986454842,11.2435848492906,230.5));
#153=CARTESIAN_POINT('',(0.669198645484199,11.2435848492906,280.479130371551));
#154=CARTESIAN_POINT('Origin',(10.6691986454842,11.2435848492906,280.479130371551));
#155=CARTESIAN_POINT('',(0.669198645484199,11.2435848492906,230.5));
#156=CARTESIAN_POINT('Origin',(10.6691986454842,11.2435848492906,274.5));
#157=CARTESIAN_POINT('',(-4.8308013545158,11.2435848492906,274.5));
#158=CARTESIAN_POINT('Origin',(1.1691986454842,11.2435848492906,274.5));
#159=CARTESIAN_POINT('Origin',(10.6691986454842,11.2435848492906,274.5));
#160=CARTESIAN_POINT('Origin',(10.6691986454842,11.2435848492906,0.));
#161=CARTESIAN_POINT('',(-4.8308013545158,11.2435848492906,6.));
#162=CARTESIAN_POINT('',(-4.8308013545158,11.2435848492906,0.));
#163=CARTESIAN_POINT('Origin',(10.6691986454842,11.2435848492906,6.));
#164=CARTESIAN_POINT('Origin',(10.6691986454842,11.2435848492906,6.));
#165=CARTESIAN_POINT('',(1.1691986454842,11.2435848492906,0.));
#166=CARTESIAN_POINT('Origin',(1.1691986454842,11.2435848492906,6.));
#167=CARTESIAN_POINT('Origin',(10.6691986454842,11.2435848492906,0.));
#168=CARTESIAN_POINT('Origin',(10.6691986454842,11.2435848492906,0.));
#169=UNCERTAINTY_MEASURE_WITH_UNIT(LENGTH_MEASURE(0.01),#173,
'DISTANCE_ACCURACY_VALUE',
'Maximum model space distance between geometric entities at asserted c
onnectivities');
#170=UNCERTAINTY_MEASURE_WITH_UNIT(LENGTH_MEASURE(0.01),#173,
'DISTANCE_ACCURACY_VALUE',
'Maximum model space distance between geometric entities at asserted c
onnectivities');
#171=(
GEOMETRIC_REPRESENTATION_CONTEXT(3)
GLOBAL_UNCERTAINTY_ASSIGNED_CONTEXT((#169))
GLOBAL_UNIT_ASSIGNED_CONTEXT((#173,#175,#176))
REPRESENTATION_CONTEXT('','3D')
);
#172=(
GEOMETRIC_REPRESENTATION_CONTEXT(3)
GLOBAL_UNCERTAINTY_ASSIGNED_CONTEXT((#170))
GLOBAL_UNIT_ASSIGNED_CONTEXT((#173,#175,#176))
REPRESENTATION_CONTEXT('','3D')
);
#173=(
LENGTH_UNIT()
NAMED_UNIT(*)
SI_UNIT(.MILLI.,.METRE.)
);
#174=(
LENGTH_UNIT()
NAMED_UNIT(*)
SI_UNIT($,.METRE.)
);
#175=(
NAMED_UNIT(*)
PLANE_ANGLE_UNIT()
SI_UNIT($,.RADIAN.)
);
#176=(
NAMED_UNIT(*)
SI_UNIT($,.STERADIAN.)
SOLID_ANGLE_UNIT()
);
#177=SHAPE_DEFINITION_REPRESENTATION(#178,#179);
#178=PRODUCT_DEFINITION_SHAPE('',$,#181);
#179=SHAPE_REPRESENTATION('',(#101),#171);
#180=PRODUCT_DEFINITION_CONTEXT('part definition',#185,'design');
#181=PRODUCT_DEFINITION('Sans nom','Sans nom v1',#182,#180);
#182=PRODUCT_DEFINITION_FORMATION('',$,#187);
#183=PRODUCT_RELATED_PRODUCT_CATEGORY('Sans nom v1','Sans nom v1',(#187));
#184=APPLICATION_PROTOCOL_DEFINITION('international standard',
'automotive_design',2009,#185);
#185=APPLICATION_CONTEXT(
'Core Data for Automotive Mechanical Design Process');
#186=PRODUCT_CONTEXT('part definition',#185,'mechanical');
#187=PRODUCT('Sans nom','Sans nom v1',$,(#186));
#188=PRESENTATION_STYLE_ASSIGNMENT((#189));
#189=SURFACE_STYLE_USAGE(.BOTH.,#190);
#190=SURFACE_SIDE_STYLE('',(#191));
#191=SURFACE_STYLE_FILL_AREA(#192);
#192=FILL_AREA_STYLE('Acier - Satin\X\E9',(#193));
#193=FILL_AREA_STYLE_COLOUR('Acier - Satin\X\E9',#194);
#194=COLOUR_RGB('Acier - Satin\X\E9',0.627450980392157,0.627450980392157,
0.627450980392157);
ENDSEC;
END-ISO-10303-21;
