ISO-10303-21;
HEADER;
FILE_DESCRIPTION (( 'STEP AP203' ),
    '1' );
FILE_NAME ('SUPPORT V4 POUR USINAGE.STEP',
    '2022-05-18T09:22:39',
    ( '' ),
    ( '' ),
    'SwSTEP 2.0',
    'SolidWorks 2020',
    '' );
FILE_SCHEMA (( 'CONFIG_CONTROL_DESIGN' ));
ENDSEC;

DATA;
#1 = LOCAL_TIME ( 11, 22, 39.00000000000000000, #186 ) ;
#2 = PLANE ( 'NONE',  #209 ) ;
#3 = CARTESIAN_POINT ( 'NONE',  ( 0.000000000000000000, 22.00000000000000000, 33.00000000000000000 ) ) ;
#4 = EDGE_CURVE ( 'NONE', #117, #18, #125, .T. ) ;
#5 = FACE_OUTER_BOUND ( 'NONE', #371, .T. ) ;
#6 = LOCAL_TIME ( 11, 22, 39.00000000000000000, #412 ) ;
#7 = DIRECTION ( 'NONE',  ( 0.000000000000000000, 0.000000000000000000, -1.000000000000000000 ) ) ;
#8 = EDGE_CURVE ( 'NONE', #188, #18, #343, .T. ) ;
#9 = DIRECTION ( 'NONE',  ( 0.000000000000000000, 0.000000000000000000, -1.000000000000000000 ) ) ;
#10 = DIRECTION ( 'NONE',  ( 0.000000000000000000, -1.000000000000000000, 0.000000000000000000 ) ) ;
#11 = ORIENTED_EDGE ( 'NONE', *, *, #14, .T. ) ;
#12 = AXIS2_PLACEMENT_3D ( 'NONE', #303, #265, #15 ) ;
#13 = ORIENTED_EDGE ( 'NONE', *, *, #140, .T. ) ;
#14 = EDGE_CURVE ( 'NONE', #239, #268, #289, .T. ) ;
#15 = DIRECTION ( 'NONE',  ( -1.000000000000000000, 0.000000000000000000, 0.000000000000000000 ) ) ;
#16 = VERTEX_POINT ( 'NONE', #256 ) ;
#17 = CARTESIAN_POINT ( 'NONE',  ( 0.000000000000000000, 0.000000000000000000, 33.00000000000000000 ) ) ;
#18 = VERTEX_POINT ( 'NONE', #379 ) ;
#19 = DIRECTION ( 'NONE',  ( 0.000000000000000000, 0.000000000000000000, -1.000000000000000000 ) ) ;
#20 = ORIENTED_EDGE ( 'NONE', *, *, #393, .F. ) ;
#21 = VECTOR ( 'NONE', #108, 1000.000000000000000 ) ;
#22 = APPROVAL_STATUS ( 'not_yet_approved' ) ;
#23 = ADVANCED_FACE ( 'NONE', ( #94 ), #377, .T. ) ;
#24 = APPLICATION_CONTEXT ( 'configuration controlled 3d designs of mechanical parts and assemblies' ) ;
#25 = EDGE_LOOP ( 'NONE', ( #389, #149, #212, #135 ) ) ;
#26 = PERSON_AND_ORGANIZATION ( #158, #310 ) ;
#27 = DIRECTION ( 'NONE',  ( 0.000000000000000000, 1.000000000000000000, 0.000000000000000000 ) ) ;
#28 = CALENDAR_DATE ( 2022, 18, 5 ) ;
#29 = LINE ( 'NONE', #373, #123 ) ;
#30 = EDGE_CURVE ( 'NONE', #271, #387, #171, .T. ) ;
#31 = MANIFOLD_SOLID_BREP ( 'NONE', #326 ) ;
#32 = FACE_OUTER_BOUND ( 'NONE', #184, .T. ) ;
#33 = EDGE_LOOP ( 'NONE', ( #237, #407 ) ) ;
#34 = CARTESIAN_POINT ( 'NONE',  ( 6.080000000000000071, 0.000000000000000000, 14.69999999999999929 ) ) ;
#35 = CC_DESIGN_SECURITY_CLASSIFICATION ( #394, ( #255 ) ) ;
#36 = ADVANCED_FACE ( 'NONE', ( #32 ), #160, .F. ) ;
#37 = DIRECTION ( 'NONE',  ( 0.000000000000000000, -0.8477480127452724501, 0.5303991957822347114 ) ) ;
#38 = CYLINDRICAL_SURFACE ( 'NONE', #148, 7.898815017103540725 ) ;
#39 = PLANE ( 'NONE',  #247 ) ;
#40 = EDGE_CURVE ( 'NONE', #48, #278, #384, .T. ) ;
#41 = LINE ( 'NONE', #172, #157 ) ;
#42 = CARTESIAN_POINT ( 'NONE',  ( 0.000000000000000000, 0.000000000000000000, 0.000000000000000000 ) ) ;
#43 = APPLICATION_CONTEXT ( 'configuration controlled 3d designs of mechanical parts and assemblies' ) ;
#44 = FACE_OUTER_BOUND ( 'NONE', #132, .T. ) ;
#45 = ORIENTED_EDGE ( 'NONE', *, *, #297, .T. ) ;
#46 =( GEOMETRIC_REPRESENTATION_CONTEXT ( 3 ) GLOBAL_UNCERTAINTY_ASSIGNED_CONTEXT ( ( #224 ) ) GLOBAL_UNIT_ASSIGNED_CONTEXT ( ( #244, #77, #402 ) ) REPRESENTATION_CONTEXT ( 'NONE', 'WORKASPACE' ) );
#47 = AXIS2_PLACEMENT_3D ( 'NONE', #415, #122, #313 ) ;
#48 = VERTEX_POINT ( 'NONE', #190 ) ;
#49 = ORIENTED_EDGE ( 'NONE', *, *, #232, .T. ) ;
#50 = CARTESIAN_POINT ( 'NONE',  ( -7.898815017103540725, 0.000000000000000000, 0.000000000000000000 ) ) ;
#51 = VERTEX_POINT ( 'NONE', #129 ) ;
#52 = ADVANCED_FACE ( 'NONE', ( #98 ), #195, .F. ) ;
#53 = PLANE ( 'NONE',  #274 ) ;
#54 = APPROVAL_PERSON_ORGANIZATION ( #221, #399, #376 ) ;
#55 = ORIENTED_EDGE ( 'NONE', *, *, #40, .F. ) ;
#56 = AXIS2_PLACEMENT_3D ( 'NONE', #225, #246, #382 ) ;
#57 = CARTESIAN_POINT ( 'NONE',  ( 7.898815017103540725, 0.000000000000000000, 33.00000000000000000 ) ) ;
#58 = PERSON_AND_ORGANIZATION_ROLE ( 'classification_officer' ) ;
#59 = CC_DESIGN_DATE_AND_TIME_ASSIGNMENT ( #409, #162, ( #133 ) ) ;
#60 = DIRECTION ( 'NONE',  ( -1.000000000000000000, 0.000000000000000000, 0.000000000000000000 ) ) ;
#61 = LOCAL_TIME ( 11, 22, 39.00000000000000000, #285 ) ;
#62 = AXIS2_PLACEMENT_3D ( 'NONE', #92, #307, #27 ) ;
#63 = SHAPE_DEFINITION_REPRESENTATION ( #398, #81 ) ;
#64 = VERTEX_POINT ( 'NONE', #309 ) ;
#65 = CARTESIAN_POINT ( 'NONE',  ( 7.898815017103540725, 22.00000000000000000, 33.00000000000000000 ) ) ;
#66 = EDGE_CURVE ( 'NONE', #64, #80, #223, .T. ) ;
#67 = PLANE ( 'NONE',  #70 ) ;
#68 = EDGE_LOOP ( 'NONE', ( #45, #369, #143, #110 ) ) ;
#69 = AXIS2_PLACEMENT_3D ( 'NONE', #361, #175, #242 ) ;
#70 = AXIS2_PLACEMENT_3D ( 'NONE', #101, #392, #105 ) ;
#71 = CARTESIAN_POINT ( 'NONE',  ( 0.000000000000000000, 22.00000000000000000, 14.69999999999999929 ) ) ;
#72 = DIRECTION ( 'NONE',  ( 0.000000000000000000, 0.000000000000000000, 1.000000000000000000 ) ) ;
#73 = EDGE_LOOP ( 'NONE', ( #243, #235, #405, #403 ) ) ;
#74 = CC_DESIGN_APPROVAL ( #282, ( #133 ) ) ;
#75 = VECTOR ( 'NONE', #19, 1000.000000000000000 ) ;
#76 = CARTESIAN_POINT ( 'NONE',  ( 6.080000000000000071, 0.000000000000000000, 0.000000000000000000 ) ) ;
#77 =( NAMED_UNIT ( * ) PLANE_ANGLE_UNIT ( ) SI_UNIT ( $, .RADIAN. ) );
#78 = ORIENTED_EDGE ( 'NONE', *, *, #66, .T. ) ;
#79 = EDGE_CURVE ( 'NONE', #18, #271, #317, .T. ) ;
#80 = VERTEX_POINT ( 'NONE', #34 ) ;
#81 = ADVANCED_BREP_SHAPE_REPRESENTATION ( 'SUPPORT V4 POUR USINAGE', ( #31, #281 ), #46 ) ;
#82 = DIRECTION ( 'NONE',  ( 0.000000000000000000, 0.000000000000000000, -1.000000000000000000 ) ) ;
#83 = VECTOR ( 'NONE', #350, 1000.000000000000000 ) ;
#84 = EDGE_CURVE ( 'NONE', #80, #16, #29, .T. ) ;
#85 = DIRECTION ( 'NONE',  ( 0.000000000000000000, 0.000000000000000000, 1.000000000000000000 ) ) ;
#86 = ORIENTED_EDGE ( 'NONE', *, *, #220, .F. ) ;
#87 = CYLINDRICAL_SURFACE ( 'NONE', #12, 6.080000000000000071 ) ;
#88 = EDGE_LOOP ( 'NONE', ( #208, #112, #55, #331 ) ) ;
#89 = LINE ( 'NONE', #57, #90 ) ;
#90 = VECTOR ( 'NONE', #153, 1000.000000000000000 ) ;
#91 = EDGE_CURVE ( 'NONE', #117, #333, #89, .T. ) ;
#92 = CARTESIAN_POINT ( 'NONE',  ( -7.898815017103540725, 0.000000000000000000, 33.00000000000000000 ) ) ;
#93 = PERSON_AND_ORGANIZATION ( #158, #310 ) ;
#94 = FACE_OUTER_BOUND ( 'NONE', #259, .T. ) ;
#95 = DIRECTION ( 'NONE',  ( 0.000000000000000000, 1.000000000000000000, 0.000000000000000000 ) ) ;
#96 = LOCAL_TIME ( 11, 22, 39.00000000000000000, #406 ) ;
#97 = PERSON_AND_ORGANIZATION ( #158, #310 ) ;
#98 = FACE_OUTER_BOUND ( 'NONE', #206, .T. ) ;
#99 = ADVANCED_FACE ( 'NONE', ( #280 ), #410, .F. ) ;
#100 = DIRECTION ( 'NONE',  ( 0.000000000000000000, 0.000000000000000000, -1.000000000000000000 ) ) ;
#101 = CARTESIAN_POINT ( 'NONE',  ( 7.898815017103540725, 0.000000000000000000, 33.00000000000000000 ) ) ;
#102 = VECTOR ( 'NONE', #320, 1000.000000000000000 ) ;
#103 = LINE ( 'NONE', #292, #107 ) ;
#104 = DIRECTION ( 'NONE',  ( 0.000000000000000000, 0.000000000000000000, 1.000000000000000000 ) ) ;
#105 = DIRECTION ( 'NONE',  ( 0.000000000000000000, 0.000000000000000000, 1.000000000000000000 ) ) ;
#106 = APPROVAL_PERSON_ORGANIZATION ( #93, #180, #126 ) ;
#107 = VECTOR ( 'NONE', #167, 1000.000000000000000 ) ;
#108 = DIRECTION ( 'NONE',  ( 0.000000000000000000, 1.000000000000000000, 0.000000000000000000 ) ) ;
#109 = EDGE_CURVE ( 'NONE', #64, #51, #201, .T. ) ;
#110 = ORIENTED_EDGE ( 'NONE', *, *, #91, .T. ) ;
#111 = LINE ( 'NONE', #337, #75 ) ;
#112 = ORIENTED_EDGE ( 'NONE', *, *, #354, .F. ) ;
#113 = AXIS2_PLACEMENT_3D ( 'NONE', #301, #82, #139 ) ;
#114 = CC_DESIGN_DATE_AND_TIME_ASSIGNMENT ( #152, #124, ( #394 ) ) ;
#115 = ORIENTED_EDGE ( 'NONE', *, *, #345, .T. ) ;
#116 = PLANE ( 'NONE',  #136 ) ;
#117 = VERTEX_POINT ( 'NONE', #291 ) ;
#118 = PERSON_AND_ORGANIZATION_ROLE ( 'creator' ) ;
#119 = DIRECTION ( 'NONE',  ( 0.000000000000000000, 0.000000000000000000, -1.000000000000000000 ) ) ;
#120 = VECTOR ( 'NONE', #95, 1000.000000000000000 ) ;
#121 = PERSON_AND_ORGANIZATION ( #158, #310 ) ;
#122 = DIRECTION ( 'NONE',  ( 0.000000000000000000, 0.000000000000000000, 1.000000000000000000 ) ) ;
#123 = VECTOR ( 'NONE', #339, 1000.000000000000000 ) ;
#124 = DATE_TIME_ROLE ( 'classification_date' ) ;
#125 = LINE ( 'NONE', #156, #120 ) ;
#126 = APPROVAL_ROLE ( '' ) ;
#127 = CARTESIAN_POINT ( 'NONE',  ( 7.898815017103541614, 37.79763003420706013, 7.750320939244780050 ) ) ;
#128 = ADVANCED_FACE ( 'NONE', ( #5 ), #38, .T. ) ;
#129 = CARTESIAN_POINT ( 'NONE',  ( 6.080000000000000071, 22.00000000000000000, 0.000000000000000000 ) ) ;
#130 = CARTESIAN_POINT ( 'NONE',  ( -17.90118498289644933, 0.000000000000000000, 33.00000000000000000 ) ) ;
#131 = DIRECTION ( 'NONE',  ( -1.000000000000000000, 0.000000000000000000, 0.000000000000000000 ) ) ;
#132 = EDGE_LOOP ( 'NONE', ( #49, #261, #210, #362 ) ) ;
#133 = PRODUCT_DEFINITION ( 'UNKNOWN', '', #255, #316 ) ;
#134 = CARTESIAN_POINT ( 'NONE',  ( 6.080000000000000071, 22.00000000000000000, 14.69999999999999929 ) ) ;
#135 = ORIENTED_EDGE ( 'NONE', *, *, #297, .F. ) ;
#136 = AXIS2_PLACEMENT_3D ( 'NONE', #142, #85, #234 ) ;
#137 = CARTESIAN_POINT ( 'NONE',  ( 0.000000000000000000, 0.000000000000000000, 0.000000000000000000 ) ) ;
#138 = DIRECTION ( 'NONE',  ( 0.000000000000000000, 0.000000000000000000, -1.000000000000000000 ) ) ;
#139 = DIRECTION ( 'NONE',  ( -1.000000000000000000, 0.000000000000000000, 0.000000000000000000 ) ) ;
#140 = EDGE_CURVE ( 'NONE', #278, #64, #166, .T. ) ;
#141 = AXIS2_PLACEMENT_3D ( 'NONE', #324, #7, #322 ) ;
#142 = CARTESIAN_POINT ( 'NONE',  ( 0.000000000000000000, 0.000000000000000000, 33.00000000000000000 ) ) ;
#143 = ORIENTED_EDGE ( 'NONE', *, *, #4, .F. ) ;
#144 = DIRECTION ( 'NONE',  ( 0.000000000000000000, 1.000000000000000000, 0.000000000000000000 ) ) ;
#145 = ORIENTED_EDGE ( 'NONE', *, *, #345, .F. ) ;
#146 = CARTESIAN_POINT ( 'NONE',  ( -6.080000000000000071, 22.00000000000000000, 0.000000000000000000 ) ) ;
#147 = ORIENTED_EDGE ( 'NONE', *, *, #173, .T. ) ;
#148 = AXIS2_PLACEMENT_3D ( 'NONE', #293, #170, #257 ) ;
#149 = ORIENTED_EDGE ( 'NONE', *, *, #302, .F. ) ;
#150 = CALENDAR_DATE ( 2022, 18, 5 ) ;
#151 = ORIENTED_EDGE ( 'NONE', *, *, #302, .T. ) ;
#152 = DATE_AND_TIME ( #28, #61 ) ;
#153 = DIRECTION ( 'NONE',  ( 0.000000000000000000, 0.000000000000000000, -1.000000000000000000 ) ) ;
#154 = EDGE_CURVE ( 'NONE', #239, #117, #390, .T. ) ;
#155 = PERSON_AND_ORGANIZATION_ROLE ( 'creator' ) ;
#156 = CARTESIAN_POINT ( 'NONE',  ( 7.898815017103540725, 0.000000000000000000, 33.00000000000000000 ) ) ;
#157 = VECTOR ( 'NONE', #138, 1000.000000000000000 ) ;
#158 = PERSON ( 'UNSPECIFIED', 'UNSPECIFIED', 'UNSPECIFIED', ('UNSPECIFIED'), ('UNSPECIFIED'), ('UNSPECIFIED') ) ;
#159 = CALENDAR_DATE ( 2022, 18, 5 ) ;
#160 = PLANE ( 'NONE',  #62 ) ;
#161 = EDGE_CURVE ( 'NONE', #188, #18, #391, .T. ) ;
#162 = DATE_TIME_ROLE ( 'creation_date' ) ;
#163 = ORIENTED_EDGE ( 'NONE', *, *, #207, .F. ) ;
#164 = ORIENTED_EDGE ( 'NONE', *, *, #207, .T. ) ;
#165 = CC_DESIGN_APPROVAL ( #180, ( #394 ) ) ;
#166 = CIRCLE ( 'NONE', #319, 6.080000000000000071 ) ;
#167 = DIRECTION ( 'NONE',  ( 0.000000000000000000, 0.000000000000000000, -1.000000000000000000 ) ) ;
#168 = CC_DESIGN_PERSON_AND_ORGANIZATION_ASSIGNMENT ( #277, #378, ( #241 ) ) ;
#169 = CARTESIAN_POINT ( 'NONE',  ( 7.898815017103541614, -15.79763003420708323, 7.750320939244780050 ) ) ;
#170 = DIRECTION ( 'NONE',  ( 0.000000000000000000, 0.000000000000000000, -1.000000000000000000 ) ) ;
#171 = CIRCLE ( 'NONE', #47, 7.898815017103540725 ) ;
#172 = CARTESIAN_POINT ( 'NONE',  ( -6.080000000000000071, 0.000000000000000000, 14.69999999999999929 ) ) ;
#173 = EDGE_CURVE ( 'NONE', #188, #387, #103, .T. ) ;
#174 = FACE_OUTER_BOUND ( 'NONE', #194, .T. ) ;
#175 = DIRECTION ( 'NONE',  ( 0.000000000000000000, 0.000000000000000000, -1.000000000000000000 ) ) ;
#176 = ORIENTED_EDGE ( 'NONE', *, *, #161, .F. ) ;
#177 = CIRCLE ( 'NONE', #311, 7.898815017103540725 ) ;
#178 = CARTESIAN_POINT ( 'NONE',  ( -17.90118498289644933, 22.00000000000000000, 33.00000000000000000 ) ) ;
#179 = ORIENTED_EDGE ( 'NONE', *, *, #40, .T. ) ;
#180 = APPROVAL ( #314, 'UNSPECIFIED' ) ;
#181 = LINE ( 'NONE', #50, #383 ) ;
#182 = ORIENTED_EDGE ( 'NONE', *, *, #262, .T. ) ;
#183 = CYLINDRICAL_SURFACE ( 'NONE', #318, 6.080000000000000071 ) ;
#184 = EDGE_LOOP ( 'NONE', ( #151, #397, #163, #147 ) ) ;
#185 = EDGE_LOOP ( 'NONE', ( #338, #86, #20, #304 ) ) ;
#186 = COORDINATED_UNIVERSAL_TIME_OFFSET ( 1, 0, .AHEAD. ) ;
#187 = EDGE_CURVE ( 'NONE', #268, #333, #177, .T. ) ;
#188 = VERTEX_POINT ( 'NONE', #290 ) ;
#189 = MECHANICAL_CONTEXT ( 'NONE', #24, 'mechanical' ) ;
#190 = CARTESIAN_POINT ( 'NONE',  ( -6.080000000000000071, 0.000000000000000000, 14.69999999999999929 ) ) ;
#191 = APPROVAL_PERSON_ORGANIZATION ( #305, #282, #283 ) ;
#192 = APPROVAL_STATUS ( 'not_yet_approved' ) ;
#193 = CARTESIAN_POINT ( 'NONE',  ( -7.898815017103540725, 0.000000000000000000, 33.00000000000000000 ) ) ;
#194 = EDGE_LOOP ( 'NONE', ( #401, #145 ) ) ;
#195 = PLANE ( 'NONE',  #56 ) ;
#196 = CIRCLE ( 'NONE', #69, 6.080000000000000071 ) ;
#197 = LINE ( 'NONE', #76, #102 ) ;
#198 = LOCAL_TIME ( 11, 22, 39.00000000000000000, #279 ) ;
#199 = VECTOR ( 'NONE', #348, 1000.000000000000000 ) ;
#200 = ADVANCED_FACE ( 'NONE', ( #263 ), #202, .T. ) ;
#201 = LINE ( 'NONE', #134, #355 ) ;
#202 = PLANE ( 'NONE',  #141 ) ;
#203 = FACE_OUTER_BOUND ( 'NONE', #25, .T. ) ;
#204 = ADVANCED_FACE ( 'NONE', ( #351, #203 ), #39, .F. ) ;
#205 = DIRECTION ( 'NONE',  ( 0.000000000000000000, 0.000000000000000000, -1.000000000000000000 ) ) ;
#206 = EDGE_LOOP ( 'NONE', ( #182, #336, #366, #276 ) ) ;
#207 = EDGE_CURVE ( 'NONE', #188, #239, #325, .T. ) ;
#208 = ORIENTED_EDGE ( 'NONE', *, *, #408, .T. ) ;
#209 = AXIS2_PLACEMENT_3D ( 'NONE', #130, #37, #131 ) ;
#210 = ORIENTED_EDGE ( 'NONE', *, *, #140, .F. ) ;
#211 = LINE ( 'NONE', #17, #346 ) ;
#212 = ORIENTED_EDGE ( 'NONE', *, *, #30, .F. ) ;
#213 = DIRECTION ( 'NONE',  ( 0.000000000000000000, -0.8477480127452724501, -0.5303991957822347114 ) ) ;
#214 = ORIENTED_EDGE ( 'NONE', *, *, #393, .T. ) ;
#215 = AXIS2_PLACEMENT_3D ( 'NONE', #344, #119, #60 ) ;
#216 = PERSON_AND_ORGANIZATION ( #158, #310 ) ;
#217 = CARTESIAN_POINT ( 'NONE',  ( -7.898815017103541614, 37.79763003420706013, 7.750320939244780050 ) ) ;
#218 = DIRECTION ( 'NONE',  ( -1.000000000000000000, 0.000000000000000000, 0.000000000000000000 ) ) ;
#219 = CALENDAR_DATE ( 2022, 18, 5 ) ;
#220 = EDGE_CURVE ( 'NONE', #48, #352, #41, .T. ) ;
#221 = PERSON_AND_ORGANIZATION ( #158, #310 ) ;
#222 = AXIS2_PLACEMENT_3D ( 'NONE', #413, #205, #226 ) ;
#223 = LINE ( 'NONE', #287, #199 ) ;
#224 = UNCERTAINTY_MEASURE_WITH_UNIT (LENGTH_MEASURE( 1.000000000000000082E-05 ), #244, 'distance_accuracy_value', 'NONE');
#225 = CARTESIAN_POINT ( 'NONE',  ( 6.080000000000000071, 0.000000000000000000, 14.69999999999999929 ) ) ;
#226 = DIRECTION ( 'NONE',  ( -1.000000000000000000, 0.000000000000000000, 0.000000000000000000 ) ) ;
#227 = ADVANCED_FACE ( 'NONE', ( #264 ), #67, .F. ) ;
#228 = DIRECTION ( 'NONE',  ( 1.000000000000000000, 0.000000000000000000, 0.000000000000000000 ) ) ;
#229 = CIRCLE ( 'NONE', #222, 6.080000000000000071 ) ;
#230 = DIRECTION ( 'NONE',  ( 0.000000000000000000, 0.000000000000000000, 1.000000000000000000 ) ) ;
#231 = DIRECTION ( 'NONE',  ( 1.000000000000000000, 0.000000000000000000, 0.000000000000000000 ) ) ;
#232 = EDGE_CURVE ( 'NONE', #363, #51, #229, .T. ) ;
#233 = CARTESIAN_POINT ( 'NONE',  ( -7.898815017103551384, 0.000000000000000000, 33.00000000000000000 ) ) ;
#234 = DIRECTION ( 'NONE',  ( 1.000000000000000000, 0.000000000000000000, 0.000000000000000000 ) ) ;
#235 = ORIENTED_EDGE ( 'NONE', *, *, #341, .F. ) ;
#236 = APPLICATION_PROTOCOL_DEFINITION ( 'international standard', 'config_control_design', 1994, #24 ) ;
#237 = ORIENTED_EDGE ( 'NONE', *, *, #161, .T. ) ;
#238 = CARTESIAN_POINT ( 'NONE',  ( -7.898815017103540725, 22.00000000000000000, 0.000000000000000000 ) ) ;
#239 = VERTEX_POINT ( 'NONE', #233 ) ;
#240 = CC_DESIGN_APPROVAL ( #399, ( #255 ) ) ;
#241 = PRODUCT ( 'SUPPORT V4 POUR USINAGE', 'SUPPORT V4 POUR USINAGE', '', ( #189 ) ) ;
#242 = DIRECTION ( 'NONE',  ( -1.000000000000000000, 0.000000000000000000, 0.000000000000000000 ) ) ;
#243 = ORIENTED_EDGE ( 'NONE', *, *, #408, .F. ) ;
#244 =( LENGTH_UNIT ( ) NAMED_UNIT ( * ) SI_UNIT ( .MILLI., .METRE. ) );
#245 = EDGE_LOOP ( 'NONE', ( #214, #179, #13, #78 ) ) ;
#246 = DIRECTION ( 'NONE',  ( 1.000000000000000000, 0.000000000000000000, 0.000000000000000000 ) ) ;
#247 = AXIS2_PLACEMENT_3D ( 'NONE', #42, #104, #231 ) ;
#248 = APPROVAL_DATE_TIME ( #416, #180 ) ;
#249 = CARTESIAN_POINT ( 'NONE',  ( -6.080000000000000071, 0.000000000000000000, 14.69999999999999929 ) ) ;
#250 = CC_DESIGN_PERSON_AND_ORGANIZATION_ASSIGNMENT ( #26, #380, ( #255 ) ) ;
#251 = DATE_AND_TIME ( #349, #6 ) ;
#252 = CARTESIAN_POINT ( 'NONE',  ( -7.898815017103540725, 22.00000000000000000, 33.00000000000000000 ) ) ;
#253 = APPROVAL_DATE_TIME ( #251, #282 ) ;
#254 = CARTESIAN_POINT ( 'NONE',  ( -6.080000000000000071, 0.000000000000000000, 14.69999999999999929 ) ) ;
#255 = PRODUCT_DEFINITION_FORMATION_WITH_SPECIFIED_SOURCE ( 'ANY', '', #241, .NOT_KNOWN. ) ;
#256 = CARTESIAN_POINT ( 'NONE',  ( 6.080000000000000071, 0.000000000000000000, 0.000000000000000000 ) ) ;
#257 = DIRECTION ( 'NONE',  ( -1.000000000000000000, 0.000000000000000000, 0.000000000000000000 ) ) ;
#258 = CARTESIAN_POINT ( 'NONE',  ( 7.898815017103540725, 22.00000000000000000, 0.000000000000000000 ) ) ;
#259 = EDGE_LOOP ( 'NONE', ( #321, #273, #342, #298 ) ) ;
#260 = DIRECTION ( 'NONE',  ( -1.000000000000000000, 0.000000000000000000, 0.000000000000000000 ) ) ;
#261 = ORIENTED_EDGE ( 'NONE', *, *, #109, .F. ) ;
#262 = EDGE_CURVE ( 'NONE', #51, #16, #197, .T. ) ;
#263 = FACE_OUTER_BOUND ( 'NONE', #245, .T. ) ;
#264 = FACE_OUTER_BOUND ( 'NONE', #68, .T. ) ;
#265 = DIRECTION ( 'NONE',  ( 0.000000000000000000, 0.000000000000000000, -1.000000000000000000 ) ) ;
#266 = VECTOR ( 'NONE', #286, 1000.000000000000000 ) ;
#267 = DIRECTION ( 'NONE',  ( 0.000000000000000000, 0.5303991957822347114, -0.8477480127452724501 ) ) ;
#268 = VERTEX_POINT ( 'NONE', #327 ) ;
#269 = ADVANCED_FACE ( 'NONE', ( #174 ), #2, .T. ) ;
#270 = CARTESIAN_POINT ( 'NONE',  ( 7.898815017103540725, 0.000000000000000000, 0.000000000000000000 ) ) ;
#271 = VERTEX_POINT ( 'NONE', #258 ) ;
#272 = CARTESIAN_POINT ( 'NONE',  ( -6.080000000000000071, 0.000000000000000000, 0.000000000000000000 ) ) ;
#273 = ORIENTED_EDGE ( 'NONE', *, *, #8, .T. ) ;
#274 = AXIS2_PLACEMENT_3D ( 'NONE', #178, #213, #267 ) ;
#275 = ADVANCED_FACE ( 'NONE', ( #386 ), #53, .F. ) ;
#276 = ORIENTED_EDGE ( 'NONE', *, *, #109, .T. ) ;
#277 = PERSON_AND_ORGANIZATION ( #158, #310 ) ;
#278 = VERTEX_POINT ( 'NONE', #368 ) ;
#279 = COORDINATED_UNIVERSAL_TIME_OFFSET ( 1, 0, .AHEAD. ) ;
#280 = FACE_OUTER_BOUND ( 'NONE', #88, .T. ) ;
#281 = AXIS2_PLACEMENT_3D ( 'NONE', #332, #308, #414 ) ;
#282 = APPROVAL ( #22, 'UNSPECIFIED' ) ;
#283 = APPROVAL_ROLE ( '' ) ;
#284 = DIRECTION ( 'NONE',  ( 0.000000000000000000, 0.000000000000000000, -1.000000000000000000 ) ) ;
#285 = COORDINATED_UNIVERSAL_TIME_OFFSET ( 1, 0, .AHEAD. ) ;
#286 = DIRECTION ( 'NONE',  ( 0.000000000000000000, 1.000000000000000000, 0.000000000000000000 ) ) ;
#287 = CARTESIAN_POINT ( 'NONE',  ( 6.080000000000000071, 0.000000000000000000, 14.69999999999999929 ) ) ;
#288 = CC_DESIGN_PERSON_AND_ORGANIZATION_ASSIGNMENT ( #97, #155, ( #133 ) ) ;
#289 = LINE ( 'NONE', #193, #374 ) ;
#290 = CARTESIAN_POINT ( 'NONE',  ( -7.898815017103540725, 22.00000000000000000, 33.00000000000000000 ) ) ;
#291 = CARTESIAN_POINT ( 'NONE',  ( 7.898815017103540725, 0.000000000000000000, 33.00000000000000000 ) ) ;
#292 = CARTESIAN_POINT ( 'NONE',  ( -7.898815017103540725, 22.00000000000000000, 33.00000000000000000 ) ) ;
#293 = CARTESIAN_POINT ( 'NONE',  ( 0.000000000000000000, 0.000000000000000000, 33.00000000000000000 ) ) ;
#294 = DIRECTION ( 'NONE',  ( -1.000000000000000000, 0.000000000000000000, 0.000000000000000000 ) ) ;
#295 = FACE_OUTER_BOUND ( 'NONE', #185, .T. ) ;
#296 = VECTOR ( 'NONE', #144, 1000.000000000000000 ) ;
#297 = EDGE_CURVE ( 'NONE', #333, #271, #364, .T. ) ;
#298 = ORIENTED_EDGE ( 'NONE', *, *, #30, .T. ) ;
#299 = CARTESIAN_POINT ( 'NONE',  ( 0.000000000000000000, 0.000000000000000000, 14.69999999999999929 ) ) ;
#300 = EDGE_LOOP ( 'NONE', ( #164, #115, #417, #176 ) ) ;
#301 = CARTESIAN_POINT ( 'NONE',  ( 0.000000000000000000, 0.000000000000000000, 0.000000000000000000 ) ) ;
#302 = EDGE_CURVE ( 'NONE', #387, #268, #181, .T. ) ;
#303 = CARTESIAN_POINT ( 'NONE',  ( 0.000000000000000000, 22.00000000000000000, 14.69999999999999929 ) ) ;
#304 = ORIENTED_EDGE ( 'NONE', *, *, #84, .T. ) ;
#305 = PERSON_AND_ORGANIZATION ( #158, #310 ) ;
#306 = ORIENTED_EDGE ( 'NONE', *, *, #154, .F. ) ;
#307 = DIRECTION ( 'NONE',  ( 1.000000000000000000, 0.000000000000000000, 0.000000000000000000 ) ) ;
#308 = DIRECTION ( 'NONE',  ( 0.000000000000000000, 0.000000000000000000, 1.000000000000000000 ) ) ;
#309 = CARTESIAN_POINT ( 'NONE',  ( 6.080000000000000071, 22.00000000000000000, 14.69999999999999929 ) ) ;
#310 = ORGANIZATION ( 'UNSPECIFIED', 'UNSPECIFIED', '' ) ;
#311 = AXIS2_PLACEMENT_3D ( 'NONE', #137, #230, #357 ) ;
#312 = DATE_AND_TIME ( #159, #198 ) ;
#313 = DIRECTION ( 'NONE',  ( 1.000000000000000000, 0.000000000000000000, 0.000000000000000000 ) ) ;
#314 = APPROVAL_STATUS ( 'not_yet_approved' ) ;
#315 = CARTESIAN_POINT ( 'NONE',  ( 7.898815017103540725, 22.00000000000000000, 33.00000000000000000 ) ) ;
#316 = DESIGN_CONTEXT ( 'detailed design', #43, 'design' ) ;
#317 = LINE ( 'NONE', #315, #83 ) ;
#318 = AXIS2_PLACEMENT_3D ( 'NONE', #299, #370, #294 ) ;
#319 = AXIS2_PLACEMENT_3D ( 'NONE', #71, #9, #260 ) ;
#320 = DIRECTION ( 'NONE',  ( 0.000000000000000000, -1.000000000000000000, 0.000000000000000000 ) ) ;
#321 = ORIENTED_EDGE ( 'NONE', *, *, #173, .F. ) ;
#322 = DIRECTION ( 'NONE',  ( 0.000000000000000000, -1.000000000000000000, 0.000000000000000000 ) ) ;
#323 = CC_DESIGN_PERSON_AND_ORGANIZATION_ASSIGNMENT ( #121, #118, ( #255 ) ) ;
#324 = CARTESIAN_POINT ( 'NONE',  ( 0.000000000000000000, 0.000000000000000000, 14.69999999999999929 ) ) ;
#325 = LINE ( 'NONE', #385, #411 ) ;
#326 = CLOSED_SHELL ( 'NONE', ( #200, #99, #381, #52, #375, #269, #275, #204, #36, #23, #227, #329, #128 ) ) ;
#327 = CARTESIAN_POINT ( 'NONE',  ( -7.898815017103540725, 0.000000000000000000, 0.000000000000000000 ) ) ;
#328 = ORIENTED_EDGE ( 'NONE', *, *, #91, .F. ) ;
#329 = ADVANCED_FACE ( 'NONE', ( #335 ), #116, .T. ) ;
#330 = CARTESIAN_POINT ( 'NONE',  ( -6.080000000000000071, 0.000000000000000000, 0.000000000000000000 ) ) ;
#331 = ORIENTED_EDGE ( 'NONE', *, *, #220, .T. ) ;
#332 = CARTESIAN_POINT ( 'NONE',  ( 0.000000000000000000, 0.000000000000000000, 0.000000000000000000 ) ) ;
#333 = VERTEX_POINT ( 'NONE', #270 ) ;
#334 = ORIENTED_EDGE ( 'NONE', *, *, #187, .T. ) ;
#335 = FACE_OUTER_BOUND ( 'NONE', #300, .T. ) ;
#336 = ORIENTED_EDGE ( 'NONE', *, *, #84, .F. ) ;
#337 = CARTESIAN_POINT ( 'NONE',  ( -6.080000000000000071, 22.00000000000000000, 14.69999999999999929 ) ) ;
#338 = ORIENTED_EDGE ( 'NONE', *, *, #341, .T. ) ;
#339 = DIRECTION ( 'NONE',  ( 0.000000000000000000, 0.000000000000000000, -1.000000000000000000 ) ) ;
#340 = APPROVAL_DATE_TIME ( #312, #399 ) ;
#341 = EDGE_CURVE ( 'NONE', #16, #352, #367, .T. ) ;
#342 = ORIENTED_EDGE ( 'NONE', *, *, #79, .T. ) ;
#343 =( BOUNDED_CURVE ( )  B_SPLINE_CURVE ( 3, ( #252, #217, #127, #65 ),
 .UNSPECIFIED., .F., .F. ) 
 B_SPLINE_CURVE_WITH_KNOTS ( ( 4, 4 ),
 ( 4.712388980384689674, 7.853981633974479237 ),
 .UNSPECIFIED. ) 
 CURVE ( )  GEOMETRIC_REPRESENTATION_ITEM ( )  RATIONAL_B_SPLINE_CURVE ( ( 1.000000000000000000, 0.3333333333333335369, 0.3333333333333335369, 1.000000000000000000 ) ) 
 REPRESENTATION_ITEM ( '' )  );
#344 = CARTESIAN_POINT ( 'NONE',  ( 0.000000000000000000, 22.00000000000000000, 33.00000000000000000 ) ) ;
#345 = EDGE_CURVE ( 'NONE', #239, #117, #211, .T. ) ;
#346 = VECTOR ( 'NONE', #400, 1000.000000000000000 ) ;
#347 = APPLICATION_PROTOCOL_DEFINITION ( 'international standard', 'config_control_design', 1994, #43 ) ;
#348 = DIRECTION ( 'NONE',  ( 0.000000000000000000, -1.000000000000000000, 0.000000000000000000 ) ) ;
#349 = CALENDAR_DATE ( 2022, 18, 5 ) ;
#350 = DIRECTION ( 'NONE',  ( 0.000000000000000000, 0.000000000000000000, -1.000000000000000000 ) ) ;
#351 = FACE_BOUND ( 'NONE', #73, .T. ) ;
#352 = VERTEX_POINT ( 'NONE', #330 ) ;
#353 = AXIS2_PLACEMENT_3D ( 'NONE', #249, #218, #72 ) ;
#354 = EDGE_CURVE ( 'NONE', #278, #363, #111, .T. ) ;
#355 = VECTOR ( 'NONE', #100, 1000.000000000000000 ) ;
#356 = DIRECTION ( 'NONE',  ( 0.000000000000000000, -1.000000000000000000, 0.000000000000000000 ) ) ;
#357 = DIRECTION ( 'NONE',  ( 1.000000000000000000, 0.000000000000000000, 0.000000000000000000 ) ) ;
#358 = CARTESIAN_POINT ( 'NONE',  ( -7.898815017103551384, 0.000000000000000000, 33.00000000000000000 ) ) ;
#359 = CARTESIAN_POINT ( 'NONE',  ( 7.898815017103540725, 0.000000000000000000, 33.00000000000000000 ) ) ;
#360 = CC_DESIGN_PERSON_AND_ORGANIZATION_ASSIGNMENT ( #216, #58, ( #394 ) ) ;
#361 = CARTESIAN_POINT ( 'NONE',  ( 0.000000000000000000, 0.000000000000000000, 14.69999999999999929 ) ) ;
#362 = ORIENTED_EDGE ( 'NONE', *, *, #354, .T. ) ;
#363 = VERTEX_POINT ( 'NONE', #146 ) ;
#364 = LINE ( 'NONE', #395, #21 ) ;
#365 = PRODUCT_RELATED_PRODUCT_CATEGORY ( 'detail', '', ( #241 ) ) ;
#366 = ORIENTED_EDGE ( 'NONE', *, *, #66, .F. ) ;
#367 = CIRCLE ( 'NONE', #113, 6.080000000000000071 ) ;
#368 = CARTESIAN_POINT ( 'NONE',  ( -6.080000000000000071, 22.00000000000000000, 14.69999999999999929 ) ) ;
#369 = ORIENTED_EDGE ( 'NONE', *, *, #79, .F. ) ;
#370 = DIRECTION ( 'NONE',  ( 0.000000000000000000, 0.000000000000000000, -1.000000000000000000 ) ) ;
#371 = EDGE_LOOP ( 'NONE', ( #306, #11, #334, #328 ) ) ;
#372 = SECURITY_CLASSIFICATION_LEVEL ( 'unclassified' ) ;
#373 = CARTESIAN_POINT ( 'NONE',  ( 6.080000000000000071, 0.000000000000000000, 14.69999999999999929 ) ) ;
#374 = VECTOR ( 'NONE', #284, 1000.000000000000000 ) ;
#375 = ADVANCED_FACE ( 'NONE', ( #295 ), #183, .F. ) ;
#376 = APPROVAL_ROLE ( '' ) ;
#377 = CYLINDRICAL_SURFACE ( 'NONE', #215, 7.898815017103540725 ) ;
#378 = PERSON_AND_ORGANIZATION_ROLE ( 'design_owner' ) ;
#379 = CARTESIAN_POINT ( 'NONE',  ( 7.898815017103540725, 22.00000000000000000, 33.00000000000000000 ) ) ;
#380 = PERSON_AND_ORGANIZATION_ROLE ( 'design_supplier' ) ;
#381 = ADVANCED_FACE ( 'NONE', ( #44 ), #87, .F. ) ;
#382 = DIRECTION ( 'NONE',  ( 0.000000000000000000, 1.000000000000000000, 0.000000000000000000 ) ) ;
#383 = VECTOR ( 'NONE', #10, 1000.000000000000000 ) ;
#384 = LINE ( 'NONE', #254, #266 ) ;
#385 = CARTESIAN_POINT ( 'NONE',  ( -7.898815017103540725, 0.000000000000000000, 33.00000000000000000 ) ) ;
#386 = FACE_OUTER_BOUND ( 'NONE', #33, .T. ) ;
#387 = VERTEX_POINT ( 'NONE', #238 ) ;
#388 = CARTESIAN_POINT ( 'NONE',  ( -7.898815017103541614, -15.79763003420708323, 7.750320939244780050 ) ) ;
#389 = ORIENTED_EDGE ( 'NONE', *, *, #187, .F. ) ;
#390 =( BOUNDED_CURVE ( )  B_SPLINE_CURVE ( 3, ( #358, #388, #169, #359 ),
 .UNSPECIFIED., .F., .T. ) 
 B_SPLINE_CURVE_WITH_KNOTS ( ( 4, 4 ),
 ( 4.712388980384689674, 7.853981633974479237 ),
 .UNSPECIFIED. ) 
 CURVE ( )  GEOMETRIC_REPRESENTATION_ITEM ( )  RATIONAL_B_SPLINE_CURVE ( ( 1.000000000000000000, 0.3333333333333335369, 0.3333333333333335369, 1.000000000000000000 ) ) 
 REPRESENTATION_ITEM ( '' )  );
#391 = LINE ( 'NONE', #3, #404 ) ;
#392 = DIRECTION ( 'NONE',  ( -1.000000000000000000, 0.000000000000000000, 0.000000000000000000 ) ) ;
#393 = EDGE_CURVE ( 'NONE', #80, #48, #196, .T. ) ;
#394 = SECURITY_CLASSIFICATION ( '', '', #372 ) ;
#395 = CARTESIAN_POINT ( 'NONE',  ( 7.898815017103540725, 0.000000000000000000, 0.000000000000000000 ) ) ;
#396 = LINE ( 'NONE', #272, #296 ) ;
#397 = ORIENTED_EDGE ( 'NONE', *, *, #14, .F. ) ;
#398 = PRODUCT_DEFINITION_SHAPE ( 'NONE', 'NONE',  #133 ) ;
#399 = APPROVAL ( #192, 'UNSPECIFIED' ) ;
#400 = DIRECTION ( 'NONE',  ( 1.000000000000000000, 0.000000000000000000, 0.000000000000000000 ) ) ;
#401 = ORIENTED_EDGE ( 'NONE', *, *, #154, .T. ) ;
#402 =( NAMED_UNIT ( * ) SI_UNIT ( $, .STERADIAN. ) SOLID_ANGLE_UNIT ( ) );
#403 = ORIENTED_EDGE ( 'NONE', *, *, #232, .F. ) ;
#404 = VECTOR ( 'NONE', #228, 1000.000000000000000 ) ;
#405 = ORIENTED_EDGE ( 'NONE', *, *, #262, .F. ) ;
#406 = COORDINATED_UNIVERSAL_TIME_OFFSET ( 1, 0, .AHEAD. ) ;
#407 = ORIENTED_EDGE ( 'NONE', *, *, #8, .F. ) ;
#408 = EDGE_CURVE ( 'NONE', #352, #363, #396, .T. ) ;
#409 = DATE_AND_TIME ( #150, #1 ) ;
#410 = PLANE ( 'NONE',  #353 ) ;
#411 = VECTOR ( 'NONE', #356, 1000.000000000000000 ) ;
#412 = COORDINATED_UNIVERSAL_TIME_OFFSET ( 1, 0, .AHEAD. ) ;
#413 = CARTESIAN_POINT ( 'NONE',  ( 0.000000000000000000, 22.00000000000000000, 0.000000000000000000 ) ) ;
#414 = DIRECTION ( 'NONE',  ( 1.000000000000000000, 0.000000000000000000, 0.000000000000000000 ) ) ;
#415 = CARTESIAN_POINT ( 'NONE',  ( 0.000000000000000000, 22.00000000000000000, 0.000000000000000000 ) ) ;
#416 = DATE_AND_TIME ( #219, #96 ) ;
#417 = ORIENTED_EDGE ( 'NONE', *, *, #4, .T. ) ;
ENDSEC;
END-ISO-10303-21;
