ISO-10303-21;
HEADER;
FILE_DESCRIPTION (( 'STEP AP214' ),
    '1' );
FILE_NAME ('douille.STEP',
    '2022-05-16T08:51:25',
    ( '' ),
    ( '' ),
    'SwSTEP 2.0',
    'SolidWorks 2021',
    '' );
FILE_SCHEMA (( 'AUTOMOTIVE_DESIGN' ));
ENDSEC;

DATA;
#1 = CARTESIAN_POINT ( 'NONE',  ( 21.75000000000000000, 0.000000000000000000, 41.70000000000003126 ) ) ;
#2 = VERTEX_POINT ( 'NONE', #4 ) ;
#3 = ORIENTED_EDGE ( 'NONE', *, *, #188, .F. ) ;
#4 = CARTESIAN_POINT ( 'NONE',  ( -21.75000000000000000, 0.000000000000000000, 0.5000000000000004441 ) ) ;
#5 = CIRCLE ( 'NONE', #82, 25.00000000000000000 ) ;
#6 = DIRECTION ( 'NONE',  ( 0.000000000000000000, 0.000000000000000000, 1.000000000000000000 ) ) ;
#7 = CIRCLE ( 'NONE', #11, 21.75000000000000000 ) ;
#8 = CARTESIAN_POINT ( 'NONE',  ( -21.75000000000000000, 2.663606788145493022E-15, 41.70000000000003126 ) ) ;
#9 = DIRECTION ( 'NONE',  ( 1.000000000000000000, 0.000000000000000000, -0.000000000000000000 ) ) ;
#10 = CARTESIAN_POINT ( 'NONE',  ( -22.24999999999997158, 2.724839128102857441E-15, 42.20000000000000284 ) ) ;
#11 = AXIS2_PLACEMENT_3D ( 'NONE', #174, #200, #151 ) ;
#12 = EDGE_CURVE ( 'NONE', #245, #95, #289, .T. ) ;
#13 = CARTESIAN_POINT ( 'NONE',  ( -22.24999999999999289, 0.000000000000000000, 0.000000000000000000 ) ) ;
#14 = CARTESIAN_POINT ( 'NONE',  ( 0.000000000000000000, 0.000000000000000000, 0.5000000000000004441 ) ) ;
#15 = VECTOR ( 'NONE', #311, 1000.000000000000000 ) ;
#16 = DIRECTION ( 'NONE',  ( -0.000000000000000000, -0.000000000000000000, -1.000000000000000000 ) ) ;
#17 = AXIS2_PLACEMENT_3D ( 'NONE', #227, #226, #178 ) ;
#18 = CARTESIAN_POINT ( 'NONE',  ( 25.00000000000000000, 3.061616997868383043E-15, 42.20000000000000284 ) ) ;
#19 = DIRECTION ( 'NONE',  ( 1.000000000000000000, 0.000000000000000000, 0.000000000000000000 ) ) ;
#20 = EDGE_CURVE ( 'NONE', #144, #295, #207, .T. ) ;
#21 = PRESENTATION_STYLE_ASSIGNMENT (( #218 ) ) ;
#22 = EDGE_LOOP ( 'NONE', ( #274, #219, #141, #171 ) ) ;
#23 = MECHANICAL_DESIGN_GEOMETRIC_PRESENTATION_REPRESENTATION (  '', ( #119 ), #175 ) ;
#24 = ORIENTED_EDGE ( 'NONE', *, *, #168, .F. ) ;
#25 = EDGE_LOOP ( 'NONE', ( #123, #24, #158, #138 ) ) ;
#26 = ORIENTED_EDGE ( 'NONE', *, *, #66, .T. ) ;
#27 = DIRECTION ( 'NONE',  ( 0.000000000000000000, 0.000000000000000000, 1.000000000000000000 ) ) ;
#28 = AXIS2_PLACEMENT_3D ( 'NONE', #109, #62, #111 ) ;
#29 = EDGE_CURVE ( 'NONE', #193, #124, #164, .T. ) ;
#30 = LINE ( 'NONE', #280, #279 ) ;
#31 = PRODUCT ( 'douille', 'douille', '', ( #167 ) ) ;
#32 = FACE_OUTER_BOUND ( 'NONE', #39, .T. ) ;
#33 = CARTESIAN_POINT ( 'NONE',  ( 25.00000000000000000, 3.061616997868383043E-15, 0.000000000000000000 ) ) ;
#34 = DIRECTION ( 'NONE',  ( 0.000000000000000000, 0.000000000000000000, 1.000000000000000000 ) ) ;
#35 = AXIS2_PLACEMENT_3D ( 'NONE', #55, #229, #156 ) ;
#36 = PRODUCT_DEFINITION_CONTEXT ( 'detailed design', #202, 'design' ) ;
#37 = DIRECTION ( 'NONE',  ( -0.000000000000000000, -0.000000000000000000, -1.000000000000000000 ) ) ;
#38 =( NAMED_UNIT ( * ) SI_UNIT ( $, .STERADIAN. ) SOLID_ANGLE_UNIT ( ) );
#39 = EDGE_LOOP ( 'NONE', ( #47, #45, #98, #217 ) ) ;
#40 = ADVANCED_FACE ( 'NONE', ( #293, #166 ), #267, .F. ) ;
#41 = AXIS2_PLACEMENT_3D ( 'NONE', #194, #115, #294 ) ;
#42 =( LENGTH_UNIT ( ) NAMED_UNIT ( * ) SI_UNIT ( .MILLI., .METRE. ) );
#43 = ORIENTED_EDGE ( 'NONE', *, *, #122, .F. ) ;
#44 = VECTOR ( 'NONE', #204, 1000.000000000000000 ) ;
#45 = ORIENTED_EDGE ( 'NONE', *, *, #284, .F. ) ;
#46 = CARTESIAN_POINT ( 'NONE',  ( 0.000000000000000000, 0.000000000000000000, 0.000000000000000000 ) ) ;
#47 = ORIENTED_EDGE ( 'NONE', *, *, #198, .F. ) ;
#48 = VERTEX_POINT ( 'NONE', #180 ) ;
#49 = CONICAL_SURFACE ( 'NONE', #64, 21.75000000000000000, 0.7853981633974482790 ) ;
#50 =( NAMED_UNIT ( * ) SI_UNIT ( $, .STERADIAN. ) SOLID_ANGLE_UNIT ( ) );
#51 = VERTEX_POINT ( 'NONE', #10 ) ;
#52 = ADVANCED_FACE ( 'NONE', ( #201 ), #254, .F. ) ;
#53 = CARTESIAN_POINT ( 'NONE',  ( 22.24999999999997158, 0.000000000000000000, 42.20000000000000284 ) ) ;
#54 = DIRECTION ( 'NONE',  ( -1.000000000000000000, 0.000000000000000000, 0.000000000000000000 ) ) ;
#55 = CARTESIAN_POINT ( 'NONE',  ( 0.000000000000000000, 0.000000000000000000, 42.20000000000000284 ) ) ;
#56 = DIRECTION ( 'NONE',  ( -0.000000000000000000, -0.000000000000000000, -1.000000000000000000 ) ) ;
#57 = AXIS2_PLACEMENT_3D ( 'NONE', #230, #16, #258 ) ;
#58 = LINE ( 'NONE', #8, #85 ) ;
#59 = CIRCLE ( 'NONE', #100, 21.75000000000000000 ) ;
#60 = CARTESIAN_POINT ( 'NONE',  ( 25.00000000000000000, 3.061616997868383043E-15, 42.20000000000000284 ) ) ;
#61 = UNCERTAINTY_MEASURE_WITH_UNIT (LENGTH_MEASURE( 1.000000000000000082E-05 ), #42, 'distance_accuracy_value', 'NONE');
#62 = DIRECTION ( 'NONE',  ( 0.000000000000000000, 0.000000000000000000, 1.000000000000000000 ) ) ;
#63 = ORIENTED_EDGE ( 'NONE', *, *, #211, .T. ) ;
#64 = AXIS2_PLACEMENT_3D ( 'NONE', #203, #34, #126 ) ;
#65 = FACE_OUTER_BOUND ( 'NONE', #94, .T. ) ;
#66 = EDGE_CURVE ( 'NONE', #124, #51, #93, .T. ) ;
#67 = DIRECTION ( 'NONE',  ( 1.000000000000000000, 0.000000000000000000, 0.000000000000000000 ) ) ;
#68 = LINE ( 'NONE', #234, #305 ) ;
#69 = ORIENTED_EDGE ( 'NONE', *, *, #244, .T. ) ;
#70 =( NAMED_UNIT ( * ) PLANE_ANGLE_UNIT ( ) SI_UNIT ( $, .RADIAN. ) );
#71 = ORIENTED_EDGE ( 'NONE', *, *, #20, .F. ) ;
#72 = ORIENTED_EDGE ( 'NONE', *, *, #179, .F. ) ;
#73 = ORIENTED_EDGE ( 'NONE', *, *, #255, .T. ) ;
#74 = VECTOR ( 'NONE', #37, 1000.000000000000000 ) ;
#75 = EDGE_CURVE ( 'NONE', #193, #48, #7, .T. ) ;
#76 = DIRECTION ( 'NONE',  ( -1.000000000000000000, 0.000000000000000000, 0.000000000000000000 ) ) ;
#77 = FACE_OUTER_BOUND ( 'NONE', #25, .T. ) ;
#78 = DIRECTION ( 'NONE',  ( -0.000000000000000000, -0.000000000000000000, -1.000000000000000000 ) ) ;
#79 = CARTESIAN_POINT ( 'NONE',  ( 0.000000000000000000, 0.000000000000000000, 0.5000000000000004441 ) ) ;
#80 = UNCERTAINTY_MEASURE_WITH_UNIT (LENGTH_MEASURE( 1.000000000000000082E-05 ), #117, 'distance_accuracy_value', 'NONE');
#81 = CARTESIAN_POINT ( 'NONE',  ( -25.00000000000000000, 0.000000000000000000, 0.000000000000000000 ) ) ;
#82 = AXIS2_PLACEMENT_3D ( 'NONE', #306, #107, #67 ) ;
#83 = DIRECTION ( 'NONE',  ( 1.000000000000000000, 0.000000000000000000, 0.000000000000000000 ) ) ;
#84 = ADVANCED_FACE ( 'NONE', ( #303 ), #49, .F. ) ;
#85 = VECTOR ( 'NONE', #253, 1000.000000000000114 ) ;
#86 = SURFACE_STYLE_USAGE ( .BOTH. , #287 ) ;
#87 = DIRECTION ( 'NONE',  ( 0.000000000000000000, 0.000000000000000000, 1.000000000000000000 ) ) ;
#88 = FILL_AREA_STYLE_COLOUR ( '', #301 ) ;
#89 = AXIS2_PLACEMENT_3D ( 'NONE', #14, #153, #197 ) ;
#90 = AXIS2_PLACEMENT_3D ( 'NONE', #181, #285, #160 ) ;
#91 = DIRECTION ( 'NONE',  ( 0.7071067811865474617, 0.000000000000000000, 0.7071067811865474617 ) ) ;
#92 = FILL_AREA_STYLE_COLOUR ( '', #189 ) ;
#93 = CIRCLE ( 'NONE', #114, 22.24999999999997158 ) ;
#94 = EDGE_LOOP ( 'NONE', ( #148, #73, #264, #72 ) ) ;
#95 = VERTEX_POINT ( 'NONE', #130 ) ;
#96 = ADVANCED_FACE ( 'NONE', ( #304 ), #152, .F. ) ;
#97 = AXIS2_PLACEMENT_3D ( 'NONE', #208, #307, #157 ) ;
#98 = ORIENTED_EDGE ( 'NONE', *, *, #163, .T. ) ;
#99 = DIRECTION ( 'NONE',  ( 1.000000000000000000, 0.000000000000000000, 0.000000000000000000 ) ) ;
#100 = AXIS2_PLACEMENT_3D ( 'NONE', #290, #87, #19 ) ;
#101 = FACE_OUTER_BOUND ( 'NONE', #195, .T. ) ;
#102 = CYLINDRICAL_SURFACE ( 'NONE', #35, 25.00000000000000000 ) ;
#103 = CARTESIAN_POINT ( 'NONE',  ( 0.000000000000000000, 0.000000000000000000, 0.000000000000000000 ) ) ;
#104 = FACE_OUTER_BOUND ( 'NONE', #143, .T. ) ;
#105 = CARTESIAN_POINT ( 'NONE',  ( 22.24999999999999289, 2.724839128102859807E-15, 0.000000000000000000 ) ) ;
#106 = ADVANCED_FACE ( 'NONE', ( #77 ), #213, .F. ) ;
#107 = DIRECTION ( 'NONE',  ( 0.000000000000000000, 0.000000000000000000, 1.000000000000000000 ) ) ;
#108 = CLOSED_SHELL ( 'NONE', ( #96, #52, #314, #110, #146, #40, #142, #292, #106, #84 ) ) ;
#109 = CARTESIAN_POINT ( 'NONE',  ( 0.000000000000000000, 0.000000000000000000, 0.000000000000000000 ) ) ;
#110 = ADVANCED_FACE ( 'NONE', ( #101 ), #302, .T. ) ;
#111 = DIRECTION ( 'NONE',  ( 1.000000000000000000, 0.000000000000000000, 0.000000000000000000 ) ) ;
#112 = FILL_AREA_STYLE ('',( #88 ) ) ;
#113 = VERTEX_POINT ( 'NONE', #81 ) ;
#114 = AXIS2_PLACEMENT_3D ( 'NONE', #150, #56, #300 ) ;
#115 = DIRECTION ( 'NONE',  ( 0.000000000000000000, 0.000000000000000000, 1.000000000000000000 ) ) ;
#116 = ORIENTED_EDGE ( 'NONE', *, *, #29, .T. ) ;
#117 =( LENGTH_UNIT ( ) NAMED_UNIT ( * ) SI_UNIT ( .MILLI., .METRE. ) );
#118 = DIRECTION ( 'NONE',  ( 1.000000000000000000, 0.000000000000000000, 0.000000000000000000 ) ) ;
#119 = STYLED_ITEM ( 'NONE', ( #21 ), #125 ) ;
#120 = EDGE_LOOP ( 'NONE', ( #26, #63 ) ) ;
#121 = ORIENTED_EDGE ( 'NONE', *, *, #163, .F. ) ;
#122 = EDGE_CURVE ( 'NONE', #2, #144, #30, .T. ) ;
#123 = ORIENTED_EDGE ( 'NONE', *, *, #272, .F. ) ;
#124 = VERTEX_POINT ( 'NONE', #53 ) ;
#125 = ADVANCED_BREP_SHAPE_REPRESENTATION ( 'douille', ( #265, #41 ), #246 ) ;
#126 = DIRECTION ( 'NONE',  ( 1.000000000000000000, 0.000000000000000000, 0.000000000000000000 ) ) ;
#127 = DIRECTION ( 'NONE',  ( 1.000000000000000000, 0.000000000000000000, -0.000000000000000000 ) ) ;
#128 = LINE ( 'NONE', #299, #131 ) ;
#129 = STYLED_ITEM ( 'NONE', ( #312 ), #265 ) ;
#130 = CARTESIAN_POINT ( 'NONE',  ( -25.00000000000000000, 0.000000000000000000, 42.20000000000000284 ) ) ;
#131 = VECTOR ( 'NONE', #186, 1000.000000000000000 ) ;
#132 = EDGE_CURVE ( 'NONE', #214, #2, #286, .T. ) ;
#133 = CARTESIAN_POINT ( 'NONE',  ( 0.000000000000000000, 0.000000000000000000, 42.20000000000000284 ) ) ;
#134 = CYLINDRICAL_SURFACE ( 'NONE', #57, 21.75000000000000000 ) ;
#135 = ORIENTED_EDGE ( 'NONE', *, *, #132, .F. ) ;
#136 = PRODUCT_DEFINITION_FORMATION_WITH_SPECIFIED_SOURCE ( 'ANY', '', #31, .NOT_KNOWN. ) ;
#137 = UNCERTAINTY_MEASURE_WITH_UNIT (LENGTH_MEASURE( 1.000000000000000082E-05 ), #232, 'distance_accuracy_value', 'NONE');
#138 = ORIENTED_EDGE ( 'NONE', *, *, #244, .F. ) ;
#139 = EDGE_LOOP ( 'NONE', ( #3, #263, #291, #260 ) ) ;
#140 = CARTESIAN_POINT ( 'NONE',  ( 0.000000000000000000, 0.000000000000000000, 42.20000000000000284 ) ) ;
#141 = ORIENTED_EDGE ( 'NONE', *, *, #179, .T. ) ;
#142 = ADVANCED_FACE ( 'NONE', ( #32 ), #102, .T. ) ;
#143 = EDGE_LOOP ( 'NONE', ( #169, #298 ) ) ;
#144 = VERTEX_POINT ( 'NONE', #13 ) ;
#145 = SHAPE_DEFINITION_REPRESENTATION ( #251, #125 ) ;
#146 = ADVANCED_FACE ( 'NONE', ( #224, #104 ), #223, .T. ) ;
#147 = ORIENTED_EDGE ( 'NONE', *, *, #20, .T. ) ;
#148 = ORIENTED_EDGE ( 'NONE', *, *, #188, .T. ) ;
#149 = MECHANICAL_DESIGN_GEOMETRIC_PRESENTATION_REPRESENTATION (  '', ( #129 ), #257 ) ;
#150 = CARTESIAN_POINT ( 'NONE',  ( 0.000000000000000000, 0.000000000000000000, 42.20000000000000284 ) ) ;
#151 = DIRECTION ( 'NONE',  ( 1.000000000000000000, 0.000000000000000000, 0.000000000000000000 ) ) ;
#152 = CONICAL_SURFACE ( 'NONE', #17, 21.75000000000000000, 0.7853981633974482790 ) ;
#153 = DIRECTION ( 'NONE',  ( -0.000000000000000000, -0.000000000000000000, -1.000000000000000000 ) ) ;
#154 = DIRECTION ( 'NONE',  ( -0.7071067811865426878, 0.000000000000000000, -0.7071067811865524577 ) ) ;
#155 = EDGE_CURVE ( 'NONE', #48, #51, #58, .T. ) ;
#156 = DIRECTION ( 'NONE',  ( -1.000000000000000000, 0.000000000000000000, 0.000000000000000000 ) ) ;
#157 = DIRECTION ( 'NONE',  ( 1.000000000000000000, 0.000000000000000000, 0.000000000000000000 ) ) ;
#158 = ORIENTED_EDGE ( 'NONE', *, *, #122, .T. ) ;
#159 = FACE_OUTER_BOUND ( 'NONE', #22, .T. ) ;
#160 = DIRECTION ( 'NONE',  ( -1.000000000000000000, 0.000000000000000000, 0.000000000000000000 ) ) ;
#161 = LINE ( 'NONE', #105, #15 ) ;
#162 = ORIENTED_EDGE ( 'NONE', *, *, #225, .F. ) ;
#163 = EDGE_CURVE ( 'NONE', #95, #113, #252, .T. ) ;
#164 = LINE ( 'NONE', #1, #233 ) ;
#165 = AXIS2_PLACEMENT_3D ( 'NONE', #46, #250, #127 ) ;
#166 = FACE_OUTER_BOUND ( 'NONE', #243, .T. ) ;
#167 = PRODUCT_CONTEXT ( 'NONE', #277, 'mechanical' ) ;
#168 = EDGE_CURVE ( 'NONE', #2, #214, #182, .T. ) ;
#169 = ORIENTED_EDGE ( 'NONE', *, *, #284, .T. ) ;
#170 = FILL_AREA_STYLE ('',( #92 ) ) ;
#171 = ORIENTED_EDGE ( 'NONE', *, *, #168, .T. ) ;
#172 = AXIS2_PLACEMENT_3D ( 'NONE', #221, #6, #99 ) ;
#173 = VERTEX_POINT ( 'NONE', #33 ) ;
#174 = CARTESIAN_POINT ( 'NONE',  ( 0.000000000000000000, 0.000000000000000000, 41.70000000000003126 ) ) ;
#175 =( GEOMETRIC_REPRESENTATION_CONTEXT ( 3 ) GLOBAL_UNCERTAINTY_ASSIGNED_CONTEXT ( ( #80 ) ) GLOBAL_UNIT_ASSIGNED_CONTEXT ( ( #117, #70, #50 ) ) REPRESENTATION_CONTEXT ( 'NONE', 'WORKASPACE' ) );
#176 = DIRECTION ( 'NONE',  ( -1.000000000000000000, 0.000000000000000000, 0.000000000000000000 ) ) ;
#177 = CARTESIAN_POINT ( 'NONE',  ( -25.00000000000000000, 0.000000000000000000, 42.20000000000000284 ) ) ;
#178 = DIRECTION ( 'NONE',  ( 1.000000000000000000, 0.000000000000000000, 0.000000000000000000 ) ) ;
#179 = EDGE_CURVE ( 'NONE', #48, #2, #128, .T. ) ;
#180 = CARTESIAN_POINT ( 'NONE',  ( -21.75000000000000000, 0.000000000000000000, 41.70000000000003126 ) ) ;
#181 = CARTESIAN_POINT ( 'NONE',  ( 0.000000000000000000, 0.000000000000000000, 42.20000000000000284 ) ) ;
#182 = CIRCLE ( 'NONE', #89, 21.75000000000000000 ) ;
#183 = DIRECTION ( 'NONE',  ( 0.000000000000000000, 0.000000000000000000, 1.000000000000000000 ) ) ;
#184 = ORIENTED_EDGE ( 'NONE', *, *, #211, .F. ) ;
#185 = CIRCLE ( 'NONE', #240, 25.00000000000000000 ) ;
#186 = DIRECTION ( 'NONE',  ( -0.000000000000000000, -0.000000000000000000, -1.000000000000000000 ) ) ;
#187 = AXIS2_PLACEMENT_3D ( 'NONE', #103, #275, #176 ) ;
#188 = EDGE_CURVE ( 'NONE', #48, #193, #59, .T. ) ;
#189 = COLOUR_RGB ( '',0.7921568627450980005, 0.8196078431372548767, 0.9333333333333333481 ) ;
#190 = ORIENTED_EDGE ( 'NONE', *, *, #225, .T. ) ;
#191 = PRODUCT_RELATED_PRODUCT_CATEGORY ( 'part', '', ( #31 ) ) ;
#192 = EDGE_LOOP ( 'NONE', ( #135, #216, #71, #43 ) ) ;
#193 = VERTEX_POINT ( 'NONE', #212 ) ;
#194 = CARTESIAN_POINT ( 'NONE',  ( 0.000000000000000000, 0.000000000000000000, 0.000000000000000000 ) ) ;
#195 = EDGE_LOOP ( 'NONE', ( #310, #239, #190, #121 ) ) ;
#196 = AXIS2_PLACEMENT_3D ( 'NONE', #278, #247, #54 ) ;
#197 = DIRECTION ( 'NONE',  ( 1.000000000000000000, 0.000000000000000000, 0.000000000000000000 ) ) ;
#198 = EDGE_CURVE ( 'NONE', #245, #173, #261, .T. ) ;
#199 = CARTESIAN_POINT ( 'NONE',  ( 0.000000000000000000, 0.000000000000000000, 0.000000000000000000 ) ) ;
#200 = DIRECTION ( 'NONE',  ( 0.000000000000000000, 0.000000000000000000, 1.000000000000000000 ) ) ;
#201 = FACE_OUTER_BOUND ( 'NONE', #192, .T. ) ;
#202 = APPLICATION_CONTEXT ( 'automotive_design' ) ;
#203 = CARTESIAN_POINT ( 'NONE',  ( 0.000000000000000000, 0.000000000000000000, 41.70000000000003126 ) ) ;
#204 = DIRECTION ( 'NONE',  ( -0.000000000000000000, -0.000000000000000000, -1.000000000000000000 ) ) ;
#205 = CIRCLE ( 'NONE', #97, 22.24999999999999289 ) ;
#206 = CARTESIAN_POINT ( 'NONE',  ( 21.75000000000000000, 2.663606788145493022E-15, 0.5000000000000004441 ) ) ;
#207 = CIRCLE ( 'NONE', #172, 22.24999999999999289 ) ;
#208 = CARTESIAN_POINT ( 'NONE',  ( 0.000000000000000000, 0.000000000000000000, 0.000000000000000000 ) ) ;
#209 = DIRECTION ( 'NONE',  ( -0.000000000000000000, -0.000000000000000000, -1.000000000000000000 ) ) ;
#210 = ORIENTED_EDGE ( 'NONE', *, *, #220, .F. ) ;
#211 = EDGE_CURVE ( 'NONE', #51, #124, #222, .T. ) ;
#212 = CARTESIAN_POINT ( 'NONE',  ( 21.75000000000000000, 2.663606788145493022E-15, 41.70000000000003126 ) ) ;
#213 = CONICAL_SURFACE ( 'NONE', #187, 22.24999999999999289, 0.7853981633974415066 ) ;
#214 = VERTEX_POINT ( 'NONE', #206 ) ;
#215 = CARTESIAN_POINT ( 'NONE',  ( 0.000000000000000000, 0.000000000000000000, 42.20000000000000284 ) ) ;
#216 = ORIENTED_EDGE ( 'NONE', *, *, #272, .T. ) ;
#217 = ORIENTED_EDGE ( 'NONE', *, *, #220, .T. ) ;
#218 = SURFACE_STYLE_USAGE ( .BOTH. , #241 ) ;
#219 = ORIENTED_EDGE ( 'NONE', *, *, #75, .T. ) ;
#220 = EDGE_CURVE ( 'NONE', #113, #173, #308, .T. ) ;
#221 = CARTESIAN_POINT ( 'NONE',  ( 0.000000000000000000, 0.000000000000000000, 0.000000000000000000 ) ) ;
#222 = CIRCLE ( 'NONE', #266, 22.24999999999997158 ) ;
#223 = PLANE ( 'NONE',  #228 ) ;
#224 = FACE_BOUND ( 'NONE', #120, .T. ) ;
#225 = EDGE_CURVE ( 'NONE', #173, #113, #5, .T. ) ;
#226 = DIRECTION ( 'NONE',  ( 0.000000000000000000, 0.000000000000000000, 1.000000000000000000 ) ) ;
#227 = CARTESIAN_POINT ( 'NONE',  ( 0.000000000000000000, 0.000000000000000000, 41.70000000000003126 ) ) ;
#228 = AXIS2_PLACEMENT_3D ( 'NONE', #133, #281, #9 ) ;
#229 = DIRECTION ( 'NONE',  ( -0.000000000000000000, -0.000000000000000000, -1.000000000000000000 ) ) ;
#230 = CARTESIAN_POINT ( 'NONE',  ( 0.000000000000000000, 0.000000000000000000, 42.20000000000000284 ) ) ;
#231 = PRODUCT_DEFINITION ( 'UNKNOWN', '', #136, #36 ) ;
#232 =( LENGTH_UNIT ( ) NAMED_UNIT ( * ) SI_UNIT ( .MILLI., .METRE. ) );
#233 = VECTOR ( 'NONE', #91, 1000.000000000000114 ) ;
#234 = CARTESIAN_POINT ( 'NONE',  ( 21.75000000000000000, 2.663606788145493022E-15, 42.20000000000000284 ) ) ;
#235 = DIRECTION ( 'NONE',  ( -0.000000000000000000, -0.000000000000000000, -1.000000000000000000 ) ) ;
#236 = SURFACE_STYLE_FILL_AREA ( #112 ) ;
#237 = ORIENTED_EDGE ( 'NONE', *, *, #75, .F. ) ;
#238 = APPLICATION_PROTOCOL_DEFINITION ( 'draft international standard', 'automotive_design', 1998, #202 ) ;
#239 = ORIENTED_EDGE ( 'NONE', *, *, #198, .T. ) ;
#240 = AXIS2_PLACEMENT_3D ( 'NONE', #259, #183, #83 ) ;
#241 = SURFACE_SIDE_STYLE ('',( #270 ) ) ;
#242 =( NAMED_UNIT ( * ) SI_UNIT ( $, .STERADIAN. ) SOLID_ANGLE_UNIT ( ) );
#243 = EDGE_LOOP ( 'NONE', ( #210, #162 ) ) ;
#244 = EDGE_CURVE ( 'NONE', #295, #144, #205, .T. ) ;
#245 = VERTEX_POINT ( 'NONE', #60 ) ;
#246 =( GEOMETRIC_REPRESENTATION_CONTEXT ( 3 ) GLOBAL_UNCERTAINTY_ASSIGNED_CONTEXT ( ( #137 ) ) GLOBAL_UNIT_ASSIGNED_CONTEXT ( ( #232, #268, #242 ) ) REPRESENTATION_CONTEXT ( 'NONE', 'WORKASPACE' ) );
#247 = DIRECTION ( 'NONE',  ( -0.000000000000000000, -0.000000000000000000, -1.000000000000000000 ) ) ;
#248 = AXIS2_PLACEMENT_3D ( 'NONE', #199, #283, #76 ) ;
#249 = DIRECTION ( 'NONE',  ( 1.000000000000000000, 0.000000000000000000, 0.000000000000000000 ) ) ;
#250 = DIRECTION ( 'NONE',  ( 0.000000000000000000, 0.000000000000000000, 1.000000000000000000 ) ) ;
#251 = PRODUCT_DEFINITION_SHAPE ( 'NONE', 'NONE',  #231 ) ;
#252 = LINE ( 'NONE', #177, #74 ) ;
#253 = DIRECTION ( 'NONE',  ( -0.7071067811865474617, 8.659560562354932858E-17, 0.7071067811865474617 ) ) ;
#254 = CONICAL_SURFACE ( 'NONE', #248, 22.24999999999999289, 0.7853981633974415066 ) ;
#255 = EDGE_CURVE ( 'NONE', #193, #214, #68, .T. ) ;
#256 = CARTESIAN_POINT ( 'NONE',  ( 22.24999999999999289, 2.724839128102859807E-15, 0.000000000000000000 ) ) ;
#257 =( GEOMETRIC_REPRESENTATION_CONTEXT ( 3 ) GLOBAL_UNCERTAINTY_ASSIGNED_CONTEXT ( ( #61 ) ) GLOBAL_UNIT_ASSIGNED_CONTEXT ( ( #42, #309, #38 ) ) REPRESENTATION_CONTEXT ( 'NONE', 'WORKASPACE' ) );
#258 = DIRECTION ( 'NONE',  ( -1.000000000000000000, 0.000000000000000000, 0.000000000000000000 ) ) ;
#259 = CARTESIAN_POINT ( 'NONE',  ( 0.000000000000000000, 0.000000000000000000, 42.20000000000000284 ) ) ;
#260 = ORIENTED_EDGE ( 'NONE', *, *, #29, .F. ) ;
#261 = LINE ( 'NONE', #18, #44 ) ;
#262 = DIRECTION ( 'NONE',  ( 1.000000000000000000, 0.000000000000000000, 0.000000000000000000 ) ) ;
#263 = ORIENTED_EDGE ( 'NONE', *, *, #155, .T. ) ;
#264 = ORIENTED_EDGE ( 'NONE', *, *, #132, .T. ) ;
#265 = MANIFOLD_SOLID_BREP ( 'Chanfrein1', #108 ) ;
#266 = AXIS2_PLACEMENT_3D ( 'NONE', #140, #235, #262 ) ;
#267 = PLANE ( 'NONE',  #165 ) ;
#268 =( NAMED_UNIT ( * ) PLANE_ANGLE_UNIT ( ) SI_UNIT ( $, .RADIAN. ) );
#269 = ORIENTED_EDGE ( 'NONE', *, *, #155, .F. ) ;
#270 = SURFACE_STYLE_FILL_AREA ( #170 ) ;
#271 = EDGE_LOOP ( 'NONE', ( #269, #237, #116, #184 ) ) ;
#272 = EDGE_CURVE ( 'NONE', #214, #295, #161, .T. ) ;
#273 = AXIS2_PLACEMENT_3D ( 'NONE', #79, #78, #249 ) ;
#274 = ORIENTED_EDGE ( 'NONE', *, *, #255, .F. ) ;
#275 = DIRECTION ( 'NONE',  ( -0.000000000000000000, -0.000000000000000000, -1.000000000000000000 ) ) ;
#276 = PRESENTATION_LAYER_ASSIGNMENT (  '', '', ( #129 ) ) ;
#277 = APPLICATION_CONTEXT ( 'automotive_design' ) ;
#278 = CARTESIAN_POINT ( 'NONE',  ( 0.000000000000000000, 0.000000000000000000, 42.20000000000000284 ) ) ;
#279 = VECTOR ( 'NONE', #154, 1000.000000000000000 ) ;
#280 = CARTESIAN_POINT ( 'NONE',  ( -22.24999999999999289, 0.000000000000000000, 0.000000000000000000 ) ) ;
#281 = DIRECTION ( 'NONE',  ( 0.000000000000000000, 0.000000000000000000, 1.000000000000000000 ) ) ;
#282 = PRESENTATION_LAYER_ASSIGNMENT (  '', '', ( #119 ) ) ;
#283 = DIRECTION ( 'NONE',  ( -0.000000000000000000, -0.000000000000000000, -1.000000000000000000 ) ) ;
#284 = EDGE_CURVE ( 'NONE', #95, #245, #185, .T. ) ;
#285 = DIRECTION ( 'NONE',  ( -0.000000000000000000, -0.000000000000000000, -1.000000000000000000 ) ) ;
#286 = CIRCLE ( 'NONE', #273, 21.75000000000000000 ) ;
#287 = SURFACE_SIDE_STYLE ('',( #236 ) ) ;
#288 = CYLINDRICAL_SURFACE ( 'NONE', #90, 21.75000000000000000 ) ;
#289 = CIRCLE ( 'NONE', #313, 25.00000000000000000 ) ;
#290 = CARTESIAN_POINT ( 'NONE',  ( 0.000000000000000000, 0.000000000000000000, 41.70000000000003126 ) ) ;
#291 = ORIENTED_EDGE ( 'NONE', *, *, #66, .F. ) ;
#292 = ADVANCED_FACE ( 'NONE', ( #159 ), #288, .F. ) ;
#293 = FACE_BOUND ( 'NONE', #296, .T. ) ;
#294 = DIRECTION ( 'NONE',  ( 1.000000000000000000, 0.000000000000000000, 0.000000000000000000 ) ) ;
#295 = VERTEX_POINT ( 'NONE', #256 ) ;
#296 = EDGE_LOOP ( 'NONE', ( #147, #69 ) ) ;
#297 = APPLICATION_PROTOCOL_DEFINITION ( 'draft international standard', 'automotive_design', 1998, #277 ) ;
#298 = ORIENTED_EDGE ( 'NONE', *, *, #12, .T. ) ;
#299 = CARTESIAN_POINT ( 'NONE',  ( -21.75000000000000000, 0.000000000000000000, 42.20000000000000284 ) ) ;
#300 = DIRECTION ( 'NONE',  ( 1.000000000000000000, 0.000000000000000000, 0.000000000000000000 ) ) ;
#301 = COLOUR_RGB ( '',0.7921568627450980005, 0.8196078431372548767, 0.9333333333333333481 ) ;
#302 = CYLINDRICAL_SURFACE ( 'NONE', #196, 25.00000000000000000 ) ;
#303 = FACE_OUTER_BOUND ( 'NONE', #271, .T. ) ;
#304 = FACE_OUTER_BOUND ( 'NONE', #139, .T. ) ;
#305 = VECTOR ( 'NONE', #209, 1000.000000000000000 ) ;
#306 = CARTESIAN_POINT ( 'NONE',  ( 0.000000000000000000, 0.000000000000000000, 0.000000000000000000 ) ) ;
#307 = DIRECTION ( 'NONE',  ( 0.000000000000000000, 0.000000000000000000, 1.000000000000000000 ) ) ;
#308 = CIRCLE ( 'NONE', #28, 25.00000000000000000 ) ;
#309 =( NAMED_UNIT ( * ) PLANE_ANGLE_UNIT ( ) SI_UNIT ( $, .RADIAN. ) );
#310 = ORIENTED_EDGE ( 'NONE', *, *, #12, .F. ) ;
#311 = DIRECTION ( 'NONE',  ( 0.7071067811865426878, 8.659560562354874926E-17, -0.7071067811865524577 ) ) ;
#312 = PRESENTATION_STYLE_ASSIGNMENT (( #86 ) ) ;
#313 = AXIS2_PLACEMENT_3D ( 'NONE', #215, #27, #118 ) ;
#314 = ADVANCED_FACE ( 'NONE', ( #65 ), #134, .F. ) ;
ENDSEC;
END-ISO-10303-21;
