ISO-10303-21;
HEADER;

/* File generated by Shapr3D Version 3.0 */

FILE_DESCRIPTION(('HOOPS Exchange Step'),'2;1');

FILE_NAME('/private/var/mobile/Containers/Data/Application/E24F3CC8-D3E3-4451-B84E-FEB11A66997E/tmp/export/temp_export',
'2022-05-01T00:37:56-22:00',
('mobile'),
('Shapr3D Limited'),
'HOOPS Exchange 2021.2',
'Shapr3D',
'Authorized');

FILE_SCHEMA( ('AP203_CONFIGURATION_CONTROLLED_3D_DESIGN_OF_MECHANICAL_PARTS_AND_ASSEMBLIES_MIM_LF') );

ENDSEC;

DATA;
#3=(NAMED_UNIT(*)PLANE_ANGLE_UNIT()SI_UNIT($,.RADIAN.));
#4=PLANE_ANGLE_MEASURE_WITH_UNIT(PLANE_ANGLE_MEASURE(0.0174532925),#3);
#5=(CONVERSION_BASED_UNIT('DEGREE',#4)NAMED_UNIT(#6)PLANE_ANGLE_UNIT());
#6=DIMENSIONAL_EXPONENTS(0.,0.,0.,0.,0.,0.,0.);
#7=(NAMED_UNIT(*)SI_UNIT($,.STERADIAN.)SOLID_ANGLE_UNIT());
#8=(LENGTH_UNIT()NAMED_UNIT(*)SI_UNIT(.MILLI.,.METRE.));
#9=UNCERTAINTY_MEASURE_WITH_UNIT(LENGTH_MEASURE(1.000000E-05),#8,'DISTANCE_ACCURACY_VALUE','Maximum Tolerance applied to model');
#10=(GEOMETRIC_REPRESENTATION_CONTEXT(3)GLOBAL_UNCERTAINTY_ASSIGNED_CONTEXT((#9))GLOBAL_UNIT_ASSIGNED_CONTEXT((#8,#5,#7))REPRESENTATION_CONTEXT('','Corps 05 (2)'));
#12=CARTESIAN_POINT('',(0.,0.,0.));
#13=DIRECTION('',(0.,0.,1.));
#14=DIRECTION('',(1.,0.,0.));
#15=AXIS2_PLACEMENT_3D('',#12,#13,#14);
#27=CARTESIAN_POINT('',(-75.00000005,-362.,80.));
#28=DIRECTION('',(-0.,0.,1.));
#29=DIRECTION('',(1.,0.,0.));
#30=AXIS2_PLACEMENT_3D('',#27,#28,#29);
#31=PLANE('',#30);
#32=CARTESIAN_POINT('',(-78.15000005,-418.,80.));
#33=VERTEX_POINT('',#32);
#34=CARTESIAN_POINT('',(-71.85000005,-418.,80.));
#35=VERTEX_POINT('',#34);
#36=CARTESIAN_POINT('',(-75.00000005,-418.,80.));
#37=DIRECTION('',(-0.,0.,1.));
#38=DIRECTION('',(1.,0.,0.));
#39=AXIS2_PLACEMENT_3D('',#36,#37,#38);
#40=CIRCLE('',#39,3.15);
#41=EDGE_CURVE('',#33,#35,#40,.T.);
#42=ORIENTED_EDGE('',*,*,#41,.F.);
#43=CARTESIAN_POINT('',(-75.00000005,-418.,80.));
#44=DIRECTION('',(-0.,0.,1.));
#45=DIRECTION('',(1.,0.,0.));
#46=AXIS2_PLACEMENT_3D('',#43,#44,#45);
#47=CIRCLE('',#46,3.15);
#48=EDGE_CURVE('',#35,#33,#47,.T.);
#49=ORIENTED_EDGE('',*,*,#48,.F.);
#50=EDGE_LOOP('',(#42,#49));
#51=FACE_BOUND('',#50,.T.);
#52=CARTESIAN_POINT('',(-78.15000005,-438.,80.));
#53=VERTEX_POINT('',#52);
#54=CARTESIAN_POINT('',(-71.85000005,-438.,80.));
#55=VERTEX_POINT('',#54);
#56=CARTESIAN_POINT('',(-75.00000005,-438.,80.));
#57=DIRECTION('',(-0.,0.,1.));
#58=DIRECTION('',(1.,0.,0.));
#59=AXIS2_PLACEMENT_3D('',#56,#57,#58);
#60=CIRCLE('',#59,3.15);
#61=EDGE_CURVE('',#53,#55,#60,.T.);
#62=ORIENTED_EDGE('',*,*,#61,.F.);
#63=CARTESIAN_POINT('',(-75.00000005,-438.,80.));
#64=DIRECTION('',(-0.,0.,1.));
#65=DIRECTION('',(1.,0.,0.));
#66=AXIS2_PLACEMENT_3D('',#63,#64,#65);
#67=CIRCLE('',#66,3.15);
#68=EDGE_CURVE('',#55,#53,#67,.T.);
#69=ORIENTED_EDGE('',*,*,#68,.F.);
#70=EDGE_LOOP('',(#62,#69));
#71=FACE_BOUND('',#70,.T.);
#72=CARTESIAN_POINT('',(-65.00000005,-446.,80.));
#73=VERTEX_POINT('',#72);
#74=CARTESIAN_POINT('',(-85.00000005,-446.,80.));
#75=VERTEX_POINT('',#74);
#76=CARTESIAN_POINT('',(-65.00000005,-446.,80.));
#77=DIRECTION('',(-1.,0.,-0.));
#78=VECTOR('',#77,20.);
#79=LINE('',#76,#78);
#80=EDGE_CURVE('',#73,#75,#79,.T.);
#81=ORIENTED_EDGE('',*,*,#80,.F.);
#82=CARTESIAN_POINT('',(-65.00000005,-410.,80.));
#83=VERTEX_POINT('',#82);
#84=CARTESIAN_POINT('',(-65.00000005,-446.,80.));
#85=DIRECTION('',(0.,1.,0.));
#86=VECTOR('',#85,36.);
#87=LINE('',#84,#86);
#88=EDGE_CURVE('',#73,#83,#87,.T.);
#89=ORIENTED_EDGE('',*,*,#88,.T.);
#90=CARTESIAN_POINT('',(-85.00000005,-410.,80.));
#91=VERTEX_POINT('',#90);
#92=CARTESIAN_POINT('',(-85.00000005,-410.,80.));
#93=DIRECTION('',(1.,0.,0.));
#94=VECTOR('',#93,20.);
#95=LINE('',#92,#94);
#96=EDGE_CURVE('',#91,#83,#95,.T.);
#97=ORIENTED_EDGE('',*,*,#96,.F.);
#98=CARTESIAN_POINT('',(-85.00000005,-410.,80.));
#99=DIRECTION('',(0.,-1.,0.));
#100=VECTOR('',#99,36.);
#101=LINE('',#98,#100);
#102=EDGE_CURVE('',#91,#75,#101,.T.);
#103=ORIENTED_EDGE('',*,*,#102,.T.);
#104=EDGE_LOOP('',(#81,#89,#97,#103));
#105=FACE_BOUND('',#104,.T.);
#106=ADVANCED_FACE('',(#51,#71,#105),#31,.T.);
#107=CARTESIAN_POINT('',(-65.00000005,-410.,65.));
#108=DIRECTION('',(0.,1.,0.));
#109=DIRECTION('',(0.,0.,1.));
#110=AXIS2_PLACEMENT_3D('',#107,#108,#109);
#111=PLANE('',#110);
#112=ORIENTED_EDGE('',*,*,#96,.T.);
#113=CARTESIAN_POINT('',(-65.00000005,-410.,-5.));
#114=VERTEX_POINT('',#113);
#115=CARTESIAN_POINT('',(-65.00000005,-410.,80.));
#116=DIRECTION('',(0.,0.,-1.));
#117=VECTOR('',#116,85.);
#118=LINE('',#115,#117);
#119=EDGE_CURVE('',#83,#114,#118,.T.);
#120=ORIENTED_EDGE('',*,*,#119,.T.);
#121=CARTESIAN_POINT('',(-85.00000005,-410.,-5.));
#122=VERTEX_POINT('',#121);
#123=CARTESIAN_POINT('',(-65.00000005,-410.,-5.));
#124=DIRECTION('',(-1.,0.,0.));
#125=VECTOR('',#124,20.);
#126=LINE('',#123,#125);
#127=EDGE_CURVE('',#114,#122,#126,.T.);
#128=ORIENTED_EDGE('',*,*,#127,.T.);
#129=CARTESIAN_POINT('',(-85.00000005,-410.,80.));
#130=DIRECTION('',(0.,0.,-1.));
#131=VECTOR('',#130,85.);
#132=LINE('',#129,#131);
#133=EDGE_CURVE('',#91,#122,#132,.T.);
#134=ORIENTED_EDGE('',*,*,#133,.F.);
#135=EDGE_LOOP('',(#112,#120,#128,#134));
#136=FACE_BOUND('',#135,.T.);
#137=ADVANCED_FACE('',(#136),#111,.T.);
#138=CARTESIAN_POINT('',(-65.00000005,-340.,10.));
#139=DIRECTION('',(-1.,0.,0.));
#140=DIRECTION('',(0.,-1.,0.));
#141=AXIS2_PLACEMENT_3D('',#138,#139,#140);
#142=PLANE('',#141);
#143=ORIENTED_EDGE('',*,*,#119,.F.);
#144=ORIENTED_EDGE('',*,*,#88,.F.);
#145=CARTESIAN_POINT('',(-65.00000005,-446.,-5.));
#146=VERTEX_POINT('',#145);
#147=CARTESIAN_POINT('',(-65.00000005,-446.,-5.));
#148=DIRECTION('',(0.,0.,1.));
#149=VECTOR('',#148,85.);
#150=LINE('',#147,#149);
#151=EDGE_CURVE('',#146,#73,#150,.T.);
#152=ORIENTED_EDGE('',*,*,#151,.F.);
#153=CARTESIAN_POINT('',(-65.00000005,-410.,-5.));
#154=DIRECTION('',(0.,-1.,0.));
#155=VECTOR('',#154,36.);
#156=LINE('',#153,#155);
#157=EDGE_CURVE('',#114,#146,#156,.T.);
#158=ORIENTED_EDGE('',*,*,#157,.F.);
#159=EDGE_LOOP('',(#143,#144,#152,#158));
#160=FACE_BOUND('',#159,.T.);
#161=ADVANCED_FACE('',(#160),#142,.F.);
#162=CARTESIAN_POINT('',(-65.00000005,-446.,65.));
#163=DIRECTION('',(0.,-1.,0.));
#164=DIRECTION('',(0.,0.,-1.));
#165=AXIS2_PLACEMENT_3D('',#162,#163,#164);
#166=PLANE('',#165);
#167=CARTESIAN_POINT('',(-85.00000005,-446.,-5.));
#168=VERTEX_POINT('',#167);
#169=CARTESIAN_POINT('',(-85.00000005,-446.,-5.));
#170=DIRECTION('',(0.,0.,1.));
#171=VECTOR('',#170,85.);
#172=LINE('',#169,#171);
#173=EDGE_CURVE('',#168,#75,#172,.T.);
#174=ORIENTED_EDGE('',*,*,#173,.F.);
#175=CARTESIAN_POINT('',(-65.00000005,-446.,-5.));
#176=DIRECTION('',(-1.,0.,0.));
#177=VECTOR('',#176,20.);
#178=LINE('',#175,#177);
#179=EDGE_CURVE('',#146,#168,#178,.T.);
#180=ORIENTED_EDGE('',*,*,#179,.F.);
#181=ORIENTED_EDGE('',*,*,#151,.T.);
#182=ORIENTED_EDGE('',*,*,#80,.T.);
#183=EDGE_LOOP('',(#174,#180,#181,#182));
#184=FACE_BOUND('',#183,.T.);
#185=ADVANCED_FACE('',(#184),#166,.T.);
#186=CARTESIAN_POINT('',(-65.00000005,-428.,-5.));
#187=DIRECTION('',(0.,0.,-1.));
#188=DIRECTION('',(-1.,0.,0.));
#189=AXIS2_PLACEMENT_3D('',#186,#187,#188);
#190=PLANE('',#189);
#191=CARTESIAN_POINT('',(-78.15000005,-418.,-5.));
#192=VERTEX_POINT('',#191);
#193=CARTESIAN_POINT('',(-75.00000005,-418.,-5.));
#194=DIRECTION('',(0.,0.,-1.));
#195=DIRECTION('',(-1.,0.,0.));
#196=AXIS2_PLACEMENT_3D('',#193,#194,#195);
#197=CIRCLE('',#196,3.15);
#198=EDGE_CURVE('',#192,#192,#197,.T.);
#199=ORIENTED_EDGE('',*,*,#198,.F.);
#200=EDGE_LOOP('',(#199));
#201=FACE_BOUND('',#200,.T.);
#202=CARTESIAN_POINT('',(-78.15000005,-438.,-5.));
#203=VERTEX_POINT('',#202);
#204=CARTESIAN_POINT('',(-75.00000005,-438.,-5.));
#205=DIRECTION('',(0.,0.,-1.));
#206=DIRECTION('',(-1.,0.,0.));
#207=AXIS2_PLACEMENT_3D('',#204,#205,#206);
#208=CIRCLE('',#207,3.15);
#209=EDGE_CURVE('',#203,#203,#208,.T.);
#210=ORIENTED_EDGE('',*,*,#209,.F.);
#211=EDGE_LOOP('',(#210));
#212=FACE_BOUND('',#211,.T.);
#213=CARTESIAN_POINT('',(-85.00000005,-410.,-5.));
#214=DIRECTION('',(0.,-1.,0.));
#215=VECTOR('',#214,36.);
#216=LINE('',#213,#215);
#217=EDGE_CURVE('',#122,#168,#216,.T.);
#218=ORIENTED_EDGE('',*,*,#217,.F.);
#219=ORIENTED_EDGE('',*,*,#127,.F.);
#220=ORIENTED_EDGE('',*,*,#157,.T.);
#221=ORIENTED_EDGE('',*,*,#179,.T.);
#222=EDGE_LOOP('',(#218,#219,#220,#221));
#223=FACE_BOUND('',#222,.T.);
#224=ADVANCED_FACE('',(#201,#212,#223),#190,.T.);
#225=CARTESIAN_POINT('',(-85.00000005,-340.,10.));
#226=DIRECTION('',(-1.,0.,0.));
#227=DIRECTION('',(0.,-1.,0.));
#228=AXIS2_PLACEMENT_3D('',#225,#226,#227);
#229=PLANE('',#228);
#230=ORIENTED_EDGE('',*,*,#102,.F.);
#231=ORIENTED_EDGE('',*,*,#133,.T.);
#232=ORIENTED_EDGE('',*,*,#217,.T.);
#233=ORIENTED_EDGE('',*,*,#173,.T.);
#234=EDGE_LOOP('',(#230,#231,#232,#233));
#235=FACE_BOUND('',#234,.T.);
#236=ADVANCED_FACE('',(#235),#229,.T.);
#237=CARTESIAN_POINT('',(-75.00000005,-438.,113.));
#238=DIRECTION('',(0.,0.,-1.));
#239=DIRECTION('',(-1.,0.,0.));
#240=AXIS2_PLACEMENT_3D('',#237,#238,#239);
#241=CYLINDRICAL_SURFACE('',#240,3.15);
#242=CARTESIAN_POINT('',(-78.15000005,-438.,-5.));
#243=DIRECTION('',(-0.,-0.,1.));
#244=VECTOR('',#243,85.);
#245=LINE('',#242,#244);
#246=EDGE_CURVE('',#203,#53,#245,.T.);
#247=ORIENTED_EDGE('',*,*,#246,.F.);
#248=ORIENTED_EDGE('',*,*,#209,.T.);
#249=ORIENTED_EDGE('',*,*,#246,.T.);
#250=ORIENTED_EDGE('',*,*,#61,.T.);
#251=ORIENTED_EDGE('',*,*,#68,.T.);
#252=EDGE_LOOP('',(#247,#248,#249,#250,#251));
#253=FACE_BOUND('',#252,.T.);
#254=ADVANCED_FACE('',(#253),#241,.F.);
#255=CARTESIAN_POINT('',(-75.00000005,-418.,113.));
#256=DIRECTION('',(0.,0.,-1.));
#257=DIRECTION('',(-1.,0.,0.));
#258=AXIS2_PLACEMENT_3D('',#255,#256,#257);
#259=CYLINDRICAL_SURFACE('',#258,3.15);
#260=CARTESIAN_POINT('',(-78.15000005,-418.,-5.));
#261=DIRECTION('',(-0.,-0.,1.));
#262=VECTOR('',#261,85.);
#263=LINE('',#260,#262);
#264=EDGE_CURVE('',#192,#33,#263,.T.);
#265=ORIENTED_EDGE('',*,*,#264,.F.);
#266=ORIENTED_EDGE('',*,*,#198,.T.);
#267=ORIENTED_EDGE('',*,*,#264,.T.);
#268=ORIENTED_EDGE('',*,*,#41,.T.);
#269=ORIENTED_EDGE('',*,*,#48,.T.);
#270=EDGE_LOOP('',(#265,#266,#267,#268,#269));
#271=FACE_BOUND('',#270,.T.);
#272=ADVANCED_FACE('',(#271),#259,.F.);
#273=CLOSED_SHELL('',(#106,#137,#161,#185,#224,#236,#254,#272));
#274=MANIFOLD_SOLID_BREP('Corps 05 (2)',#273);
#275=COLOUR_RGB('',0.274509817,0.309803933,0.921568632);
#276=FILL_AREA_STYLE_COLOUR('',#275);
#277=FILL_AREA_STYLE('',(#276));
#278=SURFACE_STYLE_FILL_AREA(#277);
#279=SURFACE_SIDE_STYLE('',(#278));
#280=SURFACE_STYLE_USAGE(.BOTH.,#279);
#281=PRESENTATION_STYLE_ASSIGNMENT((#280));
#26=STYLED_ITEM('',(#281),#274);
#16=SHAPE_REPRESENTATION('Corps 05 (2)',(#15),#10);
#17=ADVANCED_BREP_SHAPE_REPRESENTATION('Corps 05 (2)',(#274),#10);
#289=SHAPE_REPRESENTATION_RELATIONSHIP('','',#16,#17);
#290=APPLICATION_CONTEXT('configuration controlled 3D design of mechanical parts and assemblies');
#291=APPLICATION_PROTOCOL_DEFINITION('international standard','configuration_control_3d_design_ed2_mim',2004,#290);
#292=PRODUCT_CONTEXT('',#290,'mechanical');
#293=PRODUCT_DEFINITION_CONTEXT('part definition',#290,'design');
#24=PRODUCT('Corps 05 (2)','Corps 05 (2)','',(#292));
#294=PRODUCT_RELATED_PRODUCT_CATEGORY('part','',(#24));
#295=PRODUCT_DEFINITION_FORMATION_WITH_SPECIFIED_SOURCE('','',#24,.NOT_KNOWN.);
#25=PRODUCT_DEFINITION('design','',#295,#293);
#23=PRODUCT_DEFINITION_SHAPE('','',#25);
#296=SHAPE_DEFINITION_REPRESENTATION(#23,#16);
#11=DRAUGHTING_MODEL('',(),#10);
#1=MECHANICAL_DESIGN_GEOMETRIC_PRESENTATION_REPRESENTATION('',(#26),#10);
ENDSEC;
END-ISO-10303-21;
