ISO-10303-21;
HEADER;
/* Generated by software containing ST-Developer
 * from STEP Tools, Inc. (www.steptools.com) 
 */
/* OPTION: strings as raw bytes, not using required /X/ escapes */

FILE_DESCRIPTION(
/* description */ (''),
/* implementation_level */ '2;1');

FILE_NAME(
/* name */ 'FD-18-0785-565_A-Entonnoir 2022 facile Ã  fabriquer',
/* time_stamp */ '2022-05-19T10:45:10+02:00',
/* author */ ('SAM D'),
/* organization */ ('MCPI'),
/* preprocessor_version */ 'ST-DEVELOPER v16.7',
/* originating_system */ 'DEX',
/* authorisation */ $);

FILE_SCHEMA (('CONFIG_CONTROL_DESIGN'));
ENDSEC;

DATA;
#10=PROPERTY_DEFINITION_REPRESENTATION(#14,#12);
#11=PROPERTY_DEFINITION_REPRESENTATION(#15,#13);
#12=REPRESENTATION('',(#16),#538);
#13=REPRESENTATION('',(#17),#538);
#14=PROPERTY_DEFINITION('pmi validation property','',#543);
#15=PROPERTY_DEFINITION('pmi validation property','',#543);
#16=VALUE_REPRESENTATION_ITEM('number of annotations',COUNT_MEASURE(0.));
#17=VALUE_REPRESENTATION_ITEM('number of views',COUNT_MEASURE(0.));
#18=SHAPE_REPRESENTATION_RELATIONSHIP('','',#299,#19);
#19=ADVANCED_BREP_SHAPE_REPRESENTATION('',(#297),#538);
#20=TOROIDAL_SURFACE('',#328,9.5,2.);
#21=DEGENERATE_TOROIDAL_SURFACE('',#312,49.5511660410087,89.5807851615325,
 .F.);
#22=PLANE('',#307);
#23=PLANE('',#315);
#24=PLANE('',#316);
#25=PLANE('',#317);
#26=PLANE('',#322);
#27=PLANE('',#326);
#28=PLANE('',#327);
#29=CONICAL_SURFACE('',#304,24.,0.294882905269308);
#30=B_SPLINE_CURVE_WITH_KNOTS('',3,(#410,#411,#412,#413,#414),
 .UNSPECIFIED.,.F.,.F.,(4,1,4),(0.,0.0016801033879063,0.00336020677581261),
 .UNSPECIFIED.);
#31=B_SPLINE_CURVE_WITH_KNOTS('',3,(#418,#419,#420,#421,#422),
 .UNSPECIFIED.,.F.,.F.,(4,1,4),(4.27742147463618E-17,0.00167353957859825,
0.00334707915719645),.UNSPECIFIED.);
#32=B_SPLINE_CURVE_WITH_KNOTS('',3,(#426,#427,#428,#429),.UNSPECIFIED.,
 .F.,.F.,(4,4),(0.0489114522462835,0.0616139120531737),.UNSPECIFIED.);
#33=B_SPLINE_CURVE_WITH_KNOTS('',3,(#431,#432,#433,#434,#435,#436),
 .UNSPECIFIED.,.F.,.F.,(4,1,1,4),(2.09430921665444E-7,0.000814356290239452,
0.00162850314955724,0.00325679686819281),.UNSPECIFIED.);
#34=B_SPLINE_CURVE_WITH_KNOTS('',3,(#440,#441,#442,#443,#444,#445),
 .UNSPECIFIED.,.F.,.F.,(4,1,1,4),(2.22124628926873E-7,0.00162809009459333,
0.00244202407957552,0.00325595806455772),.UNSPECIFIED.);
#35=B_SPLINE_CURVE_WITH_KNOTS('',3,(#447,#448,#449,#450),.UNSPECIFIED.,
 .F.,.F.,(4,4),(0.0479568645694405,0.0606412810048101),.UNSPECIFIED.);
#36=B_SPLINE_CURVE_WITH_KNOTS('',3,(#465,#466,#467,#468,#469,#470),
 .UNSPECIFIED.,.F.,.F.,(4,1,1,4),(3.46944695195361E-18,0.00164128956437241,
0.00246193434655861,0.00328257912874482),.UNSPECIFIED.);
#37=B_SPLINE_CURVE_WITH_KNOTS('',3,(#472,#473,#474,#475,#476),
 .UNSPECIFIED.,.F.,.F.,(4,1,4),(0.115972499100776,0.127488167036125,0.139003834971473),
 .UNSPECIFIED.);
#38=B_SPLINE_CURVE_WITH_KNOTS('',3,(#478,#479,#480,#481,#482,#483,#484),
 .UNSPECIFIED.,.F.,.F.,(4,1,1,1,4),(7.75791922889773E-18,0.000866123484049795,
0.00173224696809958,0.00259837045214937,0.00346449393619916),
 .UNSPECIFIED.);
#39=B_SPLINE_CURVE_WITH_KNOTS('',3,(#488,#489,#490,#491,#492,#493,#494),
 .UNSPECIFIED.,.F.,.F.,(4,1,1,1,4),(0.,0.000866248665176403,0.00173249733035281,
0.00259874599552921,0.00346499466070561),.UNSPECIFIED.);
#40=B_SPLINE_CURVE_WITH_KNOTS('',3,(#496,#497,#498,#499,#500,#501),
 .UNSPECIFIED.,.F.,.F.,(4,1,1,4),(0.0459627063398956,0.0517017254086185,
0.0574407444773414,0.0689187826147871),.UNSPECIFIED.);
#41=B_SPLINE_CURVE_WITH_KNOTS('',3,(#503,#504,#505,#506,#507,#508),
 .UNSPECIFIED.,.F.,.F.,(4,1,1,4),(2.88193908422263E-17,0.000821269749826898,
0.00164253949965377,0.0032850789993075),.UNSPECIFIED.);
#42=CIRCLE('',#302,37.);
#43=CIRCLE('',#303,37.);
#44=CIRCLE('',#305,24.);
#45=CIRCLE('',#306,32.7476635514019);
#46=CIRCLE('',#308,36.1734924310823);
#47=CIRCLE('',#310,7.5);
#48=CIRCLE('',#311,7.5);
#49=CIRCLE('',#313,8.21040271303958);
#50=CIRCLE('',#314,24.7772744791357);
#51=CIRCLE('',#323,20.);
#52=CIRCLE('',#325,20.);
#53=ORIENTED_EDGE('',*,*,#127,.F.);
#54=ORIENTED_EDGE('',*,*,#128,.F.);
#55=ORIENTED_EDGE('',*,*,#129,.F.);
#56=ORIENTED_EDGE('',*,*,#130,.T.);
#57=ORIENTED_EDGE('',*,*,#131,.T.);
#58=ORIENTED_EDGE('',*,*,#132,.T.);
#59=ORIENTED_EDGE('',*,*,#133,.F.);
#60=ORIENTED_EDGE('',*,*,#128,.T.);
#61=ORIENTED_EDGE('',*,*,#134,.T.);
#62=ORIENTED_EDGE('',*,*,#135,.T.);
#63=ORIENTED_EDGE('',*,*,#136,.T.);
#64=ORIENTED_EDGE('',*,*,#137,.T.);
#65=ORIENTED_EDGE('',*,*,#138,.T.);
#66=ORIENTED_EDGE('',*,*,#139,.T.);
#67=ORIENTED_EDGE('',*,*,#131,.F.);
#68=ORIENTED_EDGE('',*,*,#140,.T.);
#69=ORIENTED_EDGE('',*,*,#141,.T.);
#70=ORIENTED_EDGE('',*,*,#142,.T.);
#71=ORIENTED_EDGE('',*,*,#143,.F.);
#72=ORIENTED_EDGE('',*,*,#144,.T.);
#73=ORIENTED_EDGE('',*,*,#141,.F.);
#74=ORIENTED_EDGE('',*,*,#145,.T.);
#75=ORIENTED_EDGE('',*,*,#146,.F.);
#76=ORIENTED_EDGE('',*,*,#147,.T.);
#77=ORIENTED_EDGE('',*,*,#148,.F.);
#78=ORIENTED_EDGE('',*,*,#149,.T.);
#79=ORIENTED_EDGE('',*,*,#150,.F.);
#80=ORIENTED_EDGE('',*,*,#151,.T.);
#81=ORIENTED_EDGE('',*,*,#152,.T.);
#82=ORIENTED_EDGE('',*,*,#136,.F.);
#83=ORIENTED_EDGE('',*,*,#153,.T.);
#84=ORIENTED_EDGE('',*,*,#148,.T.);
#85=ORIENTED_EDGE('',*,*,#154,.T.);
#86=ORIENTED_EDGE('',*,*,#134,.F.);
#87=ORIENTED_EDGE('',*,*,#127,.T.);
#88=ORIENTED_EDGE('',*,*,#155,.T.);
#89=ORIENTED_EDGE('',*,*,#150,.T.);
#90=ORIENTED_EDGE('',*,*,#146,.T.);
#91=ORIENTED_EDGE('',*,*,#156,.T.);
#92=ORIENTED_EDGE('',*,*,#129,.T.);
#93=ORIENTED_EDGE('',*,*,#138,.F.);
#94=ORIENTED_EDGE('',*,*,#157,.T.);
#95=ORIENTED_EDGE('',*,*,#132,.F.);
#96=ORIENTED_EDGE('',*,*,#139,.F.);
#97=ORIENTED_EDGE('',*,*,#151,.F.);
#98=ORIENTED_EDGE('',*,*,#155,.F.);
#99=ORIENTED_EDGE('',*,*,#130,.F.);
#100=ORIENTED_EDGE('',*,*,#156,.F.);
#101=ORIENTED_EDGE('',*,*,#145,.F.);
#102=ORIENTED_EDGE('',*,*,#140,.F.);
#103=ORIENTED_EDGE('',*,*,#157,.F.);
#104=ORIENTED_EDGE('',*,*,#137,.F.);
#105=ORIENTED_EDGE('',*,*,#152,.F.);
#106=ORIENTED_EDGE('',*,*,#147,.F.);
#107=ORIENTED_EDGE('',*,*,#153,.F.);
#108=ORIENTED_EDGE('',*,*,#135,.F.);
#109=ORIENTED_EDGE('',*,*,#154,.F.);
#110=ORIENTED_EDGE('',*,*,#149,.F.);
#111=ORIENTED_EDGE('',*,*,#158,.T.);
#112=ORIENTED_EDGE('',*,*,#159,.F.);
#113=ORIENTED_EDGE('',*,*,#143,.T.);
#114=ORIENTED_EDGE('',*,*,#160,.F.);
#115=ORIENTED_EDGE('',*,*,#158,.F.);
#116=ORIENTED_EDGE('',*,*,#161,.F.);
#117=ORIENTED_EDGE('',*,*,#162,.T.);
#118=ORIENTED_EDGE('',*,*,#162,.F.);
#119=ORIENTED_EDGE('',*,*,#163,.T.);
#120=ORIENTED_EDGE('',*,*,#133,.T.);
#121=ORIENTED_EDGE('',*,*,#160,.T.);
#122=ORIENTED_EDGE('',*,*,#163,.F.);
#123=ORIENTED_EDGE('',*,*,#161,.T.);
#124=ORIENTED_EDGE('',*,*,#159,.T.);
#125=ORIENTED_EDGE('',*,*,#144,.F.);
#126=ORIENTED_EDGE('',*,*,#142,.F.);
#127=EDGE_CURVE('',#164,#165,#190,.T.);
#128=EDGE_CURVE('',#166,#164,#42,.T.);
#129=EDGE_CURVE('',#167,#166,#191,.F.);
#130=EDGE_CURVE('',#167,#168,#30,.T.);
#131=EDGE_CURVE('',#168,#169,#43,.T.);
#132=EDGE_CURVE('',#169,#165,#31,.T.);
#133=EDGE_CURVE('',#170,#170,#44,.T.);
#134=EDGE_CURVE('',#164,#171,#32,.T.);
#135=EDGE_CURVE('',#171,#172,#33,.T.);
#136=EDGE_CURVE('',#172,#173,#45,.F.);
#137=EDGE_CURVE('',#173,#174,#34,.T.);
#138=EDGE_CURVE('',#174,#166,#35,.T.);
#139=EDGE_CURVE('',#175,#169,#192,.T.);
#140=EDGE_CURVE('',#168,#176,#193,.T.);
#141=EDGE_CURVE('',#176,#175,#46,.T.);
#142=EDGE_CURVE('',#177,#177,#47,.F.);
#143=EDGE_CURVE('',#178,#178,#48,.T.);
#144=EDGE_CURVE('',#179,#179,#49,.F.);
#145=EDGE_CURVE('',#176,#180,#36,.T.);
#146=EDGE_CURVE('',#181,#180,#37,.T.);
#147=EDGE_CURVE('',#181,#182,#38,.T.);
#148=EDGE_CURVE('',#183,#182,#50,.T.);
#149=EDGE_CURVE('',#183,#184,#39,.T.);
#150=EDGE_CURVE('',#185,#184,#40,.T.);
#151=EDGE_CURVE('',#185,#175,#41,.T.);
#152=EDGE_CURVE('',#182,#173,#194,.F.);
#153=EDGE_CURVE('',#172,#183,#195,.T.);
#154=EDGE_CURVE('',#184,#171,#196,.F.);
#155=EDGE_CURVE('',#165,#185,#197,.F.);
#156=EDGE_CURVE('',#180,#167,#198,.F.);
#157=EDGE_CURVE('',#174,#181,#199,.T.);
#158=EDGE_CURVE('',#186,#187,#51,.T.);
#159=EDGE_CURVE('',#186,#187,#200,.T.);
#160=EDGE_CURVE('',#187,#188,#201,.F.);
#161=EDGE_CURVE('',#189,#186,#202,.T.);
#162=EDGE_CURVE('',#189,#188,#52,.T.);
#163=EDGE_CURVE('',#189,#188,#203,.T.);
#164=VERTEX_POINT('',#404);
#165=VERTEX_POINT('',#405);
#166=VERTEX_POINT('',#407);
#167=VERTEX_POINT('',#409);
#168=VERTEX_POINT('',#415);
#169=VERTEX_POINT('',#417);
#170=VERTEX_POINT('',#425);
#171=VERTEX_POINT('',#430);
#172=VERTEX_POINT('',#437);
#173=VERTEX_POINT('',#439);
#174=VERTEX_POINT('',#446);
#175=VERTEX_POINT('',#453);
#176=VERTEX_POINT('',#455);
#177=VERTEX_POINT('',#459);
#178=VERTEX_POINT('',#461);
#179=VERTEX_POINT('',#464);
#180=VERTEX_POINT('',#471);
#181=VERTEX_POINT('',#477);
#182=VERTEX_POINT('',#485);
#183=VERTEX_POINT('',#487);
#184=VERTEX_POINT('',#495);
#185=VERTEX_POINT('',#502);
#186=VERTEX_POINT('',#524);
#187=VERTEX_POINT('',#525);
#188=VERTEX_POINT('',#529);
#189=VERTEX_POINT('',#531);
#190=LINE('',#403,#204);
#191=LINE('',#408,#205);
#192=LINE('',#452,#206);
#193=LINE('',#454,#207);
#194=LINE('',#510,#208);
#195=LINE('',#511,#209);
#196=LINE('',#513,#210);
#197=LINE('',#514,#211);
#198=LINE('',#516,#212);
#199=LINE('',#517,#213);
#200=LINE('',#526,#214);
#201=LINE('',#528,#215);
#202=LINE('',#530,#216);
#203=LINE('',#534,#217);
#204=VECTOR('',#333,1000.);
#205=VECTOR('',#336,1000.);
#206=VECTOR('',#347,1000.);
#207=VECTOR('',#348,1000.);
#208=VECTOR('',#365,1000.);
#209=VECTOR('',#366,1000.);
#210=VECTOR('',#369,1000.);
#211=VECTOR('',#370,1000.);
#212=VECTOR('',#373,1000.);
#213=VECTOR('',#374,1000.);
#214=VECTOR('',#387,1000.);
#215=VECTOR('',#390,1000.);
#216=VECTOR('',#391,1000.);
#217=VECTOR('',#396,1000.);
#218=EDGE_LOOP('',(#53,#54,#55,#56,#57,#58));
#219=EDGE_LOOP('',(#59));
#220=EDGE_LOOP('',(#60,#61,#62,#63,#64,#65));
#221=EDGE_LOOP('',(#66,#67,#68,#69));
#222=EDGE_LOOP('',(#70));
#223=EDGE_LOOP('',(#71));
#224=EDGE_LOOP('',(#72));
#225=EDGE_LOOP('',(#73,#74,#75,#76,#77,#78,#79,#80));
#226=EDGE_LOOP('',(#81,#82,#83,#84));
#227=EDGE_LOOP('',(#85,#86,#87,#88,#89));
#228=EDGE_LOOP('',(#90,#91,#92,#93,#94));
#229=EDGE_LOOP('',(#95,#96,#97,#98));
#230=EDGE_LOOP('',(#99,#100,#101,#102));
#231=EDGE_LOOP('',(#103,#104,#105,#106));
#232=EDGE_LOOP('',(#107,#108,#109,#110));
#233=EDGE_LOOP('',(#111,#112));
#234=EDGE_LOOP('',(#113));
#235=EDGE_LOOP('',(#114,#115,#116,#117));
#236=EDGE_LOOP('',(#118,#119));
#237=EDGE_LOOP('',(#120));
#238=EDGE_LOOP('',(#121,#122,#123,#124));
#239=EDGE_LOOP('',(#125));
#240=EDGE_LOOP('',(#126));
#241=FACE_BOUND('',#218,.T.);
#242=FACE_BOUND('',#219,.T.);
#243=FACE_BOUND('',#220,.T.);
#244=FACE_BOUND('',#221,.T.);
#245=FACE_BOUND('',#222,.T.);
#246=FACE_BOUND('',#223,.T.);
#247=FACE_BOUND('',#224,.T.);
#248=FACE_BOUND('',#225,.T.);
#249=FACE_BOUND('',#226,.T.);
#250=FACE_BOUND('',#227,.T.);
#251=FACE_BOUND('',#228,.T.);
#252=FACE_BOUND('',#229,.T.);
#253=FACE_BOUND('',#230,.T.);
#254=FACE_BOUND('',#231,.T.);
#255=FACE_BOUND('',#232,.T.);
#256=FACE_BOUND('',#233,.T.);
#257=FACE_BOUND('',#234,.T.);
#258=FACE_BOUND('',#235,.T.);
#259=FACE_BOUND('',#236,.T.);
#260=FACE_BOUND('',#237,.T.);
#261=FACE_BOUND('',#238,.T.);
#262=FACE_BOUND('',#239,.T.);
#263=FACE_BOUND('',#240,.T.);
#264=CYLINDRICAL_SURFACE('',#301,37.);
#265=CYLINDRICAL_SURFACE('',#309,7.5);
#266=CYLINDRICAL_SURFACE('',#318,2.);
#267=CYLINDRICAL_SURFACE('',#319,2.);
#268=CYLINDRICAL_SURFACE('',#320,2.);
#269=CYLINDRICAL_SURFACE('',#321,2.);
#270=CYLINDRICAL_SURFACE('',#324,20.);
#271=ADVANCED_FACE('',(#241),#264,.T.);
#272=ADVANCED_FACE('',(#242,#243),#29,.T.);
#273=ADVANCED_FACE('',(#244),#22,.F.);
#274=ADVANCED_FACE('',(#245,#246),#265,.F.);
#275=ADVANCED_FACE('',(#247,#248),#21,.T.);
#276=ADVANCED_FACE('',(#249),#23,.F.);
#277=ADVANCED_FACE('',(#250),#24,.F.);
#278=ADVANCED_FACE('',(#251),#25,.F.);
#279=ADVANCED_FACE('',(#252),#266,.T.);
#280=ADVANCED_FACE('',(#253),#267,.T.);
#281=ADVANCED_FACE('',(#254),#268,.F.);
#282=ADVANCED_FACE('',(#255),#269,.F.);
#283=ADVANCED_FACE('',(#256,#257),#26,.F.);
#284=ADVANCED_FACE('',(#258),#270,.T.);
#285=ADVANCED_FACE('',(#259,#260),#27,.T.);
#286=ADVANCED_FACE('',(#261),#28,.F.);
#287=ADVANCED_FACE('',(#262,#263),#20,.T.);
#288=CLOSED_SHELL('',(#271,#272,#273,#274,#275,#276,#277,#278,#279,#280,
#281,#282,#283,#284,#285,#286,#287));
#289=STYLED_ITEM('',(#290),#297);
#290=PRESENTATION_STYLE_ASSIGNMENT((#291));
#291=SURFACE_STYLE_USAGE(.BOTH.,#292);
#292=SURFACE_SIDE_STYLE('',(#293));
#293=SURFACE_STYLE_FILL_AREA(#294);
#294=FILL_AREA_STYLE('',(#295));
#295=FILL_AREA_STYLE_COLOUR('',#296);
#296=COLOUR_RGB('',0.666265070438385,0.687349379062653,0.699999988079071);
#297=MANIFOLD_SOLID_BREP('',#288);
#298=SHAPE_DEFINITION_REPRESENTATION(#543,#299);
#299=SHAPE_REPRESENTATION(
'FD-18-0785-565-Entonnoir 2022 facile à fabriquer',(#300),#538);
#300=AXIS2_PLACEMENT_3D('',#401,#329,#330);
#301=AXIS2_PLACEMENT_3D('',#402,#331,#332);
#302=AXIS2_PLACEMENT_3D('',#406,#334,#335);
#303=AXIS2_PLACEMENT_3D('',#416,#337,#338);
#304=AXIS2_PLACEMENT_3D('',#423,#339,#340);
#305=AXIS2_PLACEMENT_3D('',#424,#341,#342);
#306=AXIS2_PLACEMENT_3D('',#438,#343,#344);
#307=AXIS2_PLACEMENT_3D('',#451,#345,#346);
#308=AXIS2_PLACEMENT_3D('',#456,#349,#350);
#309=AXIS2_PLACEMENT_3D('',#457,#351,#352);
#310=AXIS2_PLACEMENT_3D('',#458,#353,#354);
#311=AXIS2_PLACEMENT_3D('',#460,#355,#356);
#312=AXIS2_PLACEMENT_3D('',#462,#357,#358);
#313=AXIS2_PLACEMENT_3D('',#463,#359,#360);
#314=AXIS2_PLACEMENT_3D('',#486,#361,#362);
#315=AXIS2_PLACEMENT_3D('',#509,#363,#364);
#316=AXIS2_PLACEMENT_3D('',#512,#367,#368);
#317=AXIS2_PLACEMENT_3D('',#515,#371,#372);
#318=AXIS2_PLACEMENT_3D('',#518,#375,#376);
#319=AXIS2_PLACEMENT_3D('',#519,#377,#378);
#320=AXIS2_PLACEMENT_3D('',#520,#379,#380);
#321=AXIS2_PLACEMENT_3D('',#521,#381,#382);
#322=AXIS2_PLACEMENT_3D('',#522,#383,#384);
#323=AXIS2_PLACEMENT_3D('',#523,#385,#386);
#324=AXIS2_PLACEMENT_3D('',#527,#388,#389);
#325=AXIS2_PLACEMENT_3D('',#532,#392,#393);
#326=AXIS2_PLACEMENT_3D('',#533,#394,#395);
#327=AXIS2_PLACEMENT_3D('',#535,#397,#398);
#328=AXIS2_PLACEMENT_3D('',#536,#399,#400);
#329=DIRECTION('',(0.,0.,1.));
#330=DIRECTION('',(1.,0.,0.));
#331=DIRECTION('',(-1.50748453636743E-16,0.,1.));
#332=DIRECTION('',(1.,0.,1.50748453636743E-16));
#333=DIRECTION('',(-1.50748453636743E-16,0.,1.));
#334=DIRECTION('',(0.,0.,-1.));
#335=DIRECTION('',(-1.,0.,0.));
#336=DIRECTION('',(-1.50748453636743E-16,0.,1.));
#337=DIRECTION('',(1.50748453636743E-16,0.,-1.));
#338=DIRECTION('',(0.,-1.,0.));
#339=DIRECTION('',(0.,0.,1.));
#340=DIRECTION('',(1.,0.,0.));
#341=DIRECTION('',(0.,0.,-1.));
#342=DIRECTION('',(-1.,0.,0.));
#343=DIRECTION('',(0.,0.,1.));
#344=DIRECTION('',(1.,0.,0.));
#345=DIRECTION('',(1.50748453636743E-16,0.,-1.));
#346=DIRECTION('',(-1.,0.,-1.50748453636743E-16));
#347=DIRECTION('',(0.,1.,0.));
#348=DIRECTION('',(0.,-1.,0.));
#349=DIRECTION('',(1.50748453636743E-16,0.,-1.));
#350=DIRECTION('',(-1.,0.,-1.50748453636743E-16));
#351=DIRECTION('',(0.,0.,1.));
#352=DIRECTION('',(1.,0.,0.));
#353=DIRECTION('',(0.,0.,-1.));
#354=DIRECTION('',(-1.,0.,0.));
#355=DIRECTION('',(0.,0.,1.));
#356=DIRECTION('',(0.,1.,0.));
#357=DIRECTION('',(0.,0.,1.));
#358=DIRECTION('',(1.,0.,0.));
#359=DIRECTION('',(0.,0.,1.));
#360=DIRECTION('',(1.,0.,0.));
#361=DIRECTION('',(2.04085114820801E-16,0.,-1.));
#362=DIRECTION('',(-1.,0.,-2.04085114820801E-16));
#363=DIRECTION('',(2.04085114820801E-16,0.,-1.));
#364=DIRECTION('',(-1.,0.,-2.04085114820801E-16));
#365=DIRECTION('',(0.,-1.,0.));
#366=DIRECTION('',(0.,-1.,0.));
#367=DIRECTION('',(-1.,0.,-3.1540426835942E-16));
#368=DIRECTION('',(-3.1540426835942E-16,0.,1.));
#369=DIRECTION('',(0.,-1.,0.));
#370=DIRECTION('',(0.,1.,0.));
#371=DIRECTION('',(1.,0.,-4.33680868994202E-16));
#372=DIRECTION('',(-4.33680868994202E-16,0.,-1.));
#373=DIRECTION('',(0.,-1.,0.));
#374=DIRECTION('',(0.,-1.,0.));
#375=DIRECTION('',(0.,1.,0.));
#376=DIRECTION('',(0.,0.,1.));
#377=DIRECTION('',(0.,-1.,0.));
#378=DIRECTION('',(0.,0.,-1.));
#379=DIRECTION('',(0.,1.,0.));
#380=DIRECTION('',(0.,0.,1.));
#381=DIRECTION('',(0.,1.,0.));
#382=DIRECTION('',(0.,0.,1.));
#383=DIRECTION('',(0.,0.,1.));
#384=DIRECTION('',(1.,0.,0.));
#385=DIRECTION('',(0.,0.,-1.));
#386=DIRECTION('',(-1.,0.,0.));
#387=DIRECTION('',(-1.,1.30104260698261E-16,0.));
#388=DIRECTION('',(0.,0.,-1.));
#389=DIRECTION('',(-1.,0.,0.));
#390=DIRECTION('',(0.,0.,-1.));
#391=DIRECTION('',(0.,0.,-1.));
#392=DIRECTION('',(0.,0.,-1.));
#393=DIRECTION('',(-1.,0.,0.));
#394=DIRECTION('',(0.,0.,-1.));
#395=DIRECTION('',(-1.,0.,0.));
#396=DIRECTION('',(-1.,1.30104260698261E-16,0.));
#397=DIRECTION('',(-1.30104260698261E-16,-1.,0.));
#398=DIRECTION('',(1.,-1.30104260698261E-16,0.));
#399=DIRECTION('',(0.,0.,-1.));
#400=DIRECTION('',(-1.,0.,0.));
#401=CARTESIAN_POINT('',(0.,0.,0.));
#402=CARTESIAN_POINT('',(-1.56398413570756E-15,0.,10.3747938899345));
#403=CARTESIAN_POINT('',(-17.,32.86335345031,10.3747938899345));
#404=CARTESIAN_POINT('',(-17.,32.8633534503099,70.5));
#405=CARTESIAN_POINT('',(-17.,32.86335345031,78.5));
#406=CARTESIAN_POINT('',(0.,0.,70.5));
#407=CARTESIAN_POINT('',(17.,32.8633534503099,70.5));
#408=CARTESIAN_POINT('',(17.,32.86335345031,10.3747938899345));
#409=CARTESIAN_POINT('',(17.,32.86335345031,78.5));
#410=CARTESIAN_POINT('',(17.,32.86335345031,78.5));
#411=CARTESIAN_POINT('',(17.,32.86335345031,79.0685126541734));
#412=CARTESIAN_POINT('',(17.5201434794975,32.5985476634962,80.1458638084623));
#413=CARTESIAN_POINT('',(18.5138353371802,32.0399579361909,80.5));
#414=CARTESIAN_POINT('',(19.,31.7490157327751,80.5));
#415=CARTESIAN_POINT('',(19.,31.7490157327751,80.5));
#416=CARTESIAN_POINT('',(-1.21352505177578E-14,0.,80.5));
#417=CARTESIAN_POINT('',(-19.,31.7490157327751,80.5));
#418=CARTESIAN_POINT('',(-19.0000000000001,31.7490157327751,80.5));
#419=CARTESIAN_POINT('',(-18.5121030083517,32.0409946375494,80.5));
#420=CARTESIAN_POINT('',(-17.5260742405014,32.5952825007868,80.1489393672275));
#421=CARTESIAN_POINT('',(-17.,32.86335345031,79.0717582329404));
#422=CARTESIAN_POINT('',(-17.,32.86335345031,78.5));
#423=CARTESIAN_POINT('',(0.,0.,27.7));
#424=CARTESIAN_POINT('',(0.,0.,27.7));
#425=CARTESIAN_POINT('',(-24.,0.,27.7));
#426=CARTESIAN_POINT('',(-17.,32.86335345031,70.5));
#427=CARTESIAN_POINT('',(-17.,31.4932322736587,66.4934593885317));
#428=CARTESIAN_POINT('',(-17.,30.1070815902044,62.4918626975084));
#429=CARTESIAN_POINT('',(-17.,28.6978287835301,58.5));
#430=CARTESIAN_POINT('',(-17.,28.6978287835301,58.5));
#431=CARTESIAN_POINT('',(-17.,28.6978287835301,58.5));
#432=CARTESIAN_POINT('',(-17.,28.6063365407943,58.240838216423));
#433=CARTESIAN_POINT('',(-16.8982428687238,28.4785828858399,57.7078861343202));
#434=CARTESIAN_POINT('',(-16.2597126350343,28.5287747033433,56.7813003572817));
#435=CARTESIAN_POINT('',(-15.4880244668167,28.8588283067267,56.5));
#436=CARTESIAN_POINT('',(-15.,29.1102983165033,56.5));
#437=CARTESIAN_POINT('',(-15.,29.1102983165033,56.5));
#438=CARTESIAN_POINT('',(0.,0.,56.5));
#439=CARTESIAN_POINT('',(15.,29.1102983165033,56.5));
#440=CARTESIAN_POINT('',(15.,29.1102983165033,56.5));
#441=CARTESIAN_POINT('',(15.4885739045679,28.8585451915838,56.5));
#442=CARTESIAN_POINT('',(16.2549519280004,28.5305417213605,56.7786094646333));
#443=CARTESIAN_POINT('',(16.8971314467211,28.4778380931448,57.7038594574035));
#444=CARTESIAN_POINT('',(17.,28.6060406644664,58.2400001143658));
#445=CARTESIAN_POINT('',(17.,28.6978287835301,58.5));
#446=CARTESIAN_POINT('',(17.,28.6978287835301,58.5));
#447=CARTESIAN_POINT('',(17.,28.6978287835301,58.5));
#448=CARTESIAN_POINT('',(17.,30.1073252945532,62.4925530167292));
#449=CARTESIAN_POINT('',(17.,31.4933156845967,66.4937033007608));
#450=CARTESIAN_POINT('',(17.,32.86335345031,70.5));
#451=CARTESIAN_POINT('',(46.0296191205239,-75.,80.5));
#452=CARTESIAN_POINT('',(-19.,-75.,80.5));
#453=CARTESIAN_POINT('',(-19.,30.7818380650274,80.5));
#454=CARTESIAN_POINT('',(19.,-75.,80.5));
#455=CARTESIAN_POINT('',(19.,30.7818380650274,80.5));
#456=CARTESIAN_POINT('',(3.91945979455532E-15,0.,80.5));
#457=CARTESIAN_POINT('',(0.,0.,0.));
#458=CARTESIAN_POINT('',(0.,0.,36.5));
#459=CARTESIAN_POINT('',(-7.5,0.,36.5));
#460=CARTESIAN_POINT('',(0.,0.,10.5));
#461=CARTESIAN_POINT('',(0.,7.5,10.5));
#462=CARTESIAN_POINT('',(0.,0.,106.5));
#463=CARTESIAN_POINT('',(0.,0.,38.0287049543533));
#464=CARTESIAN_POINT('',(8.21040271303958,0.,38.0287049543533));
#465=CARTESIAN_POINT('',(19.,30.7818380650274,80.5));
#466=CARTESIAN_POINT('',(18.5287106124535,31.0727400684902,80.5));
#467=CARTESIAN_POINT('',(17.7539829629878,31.4293081702342,80.2321247074156));
#468=CARTESIAN_POINT('',(17.1026989027704,31.4517746029119,79.2977889340715));
#469=CARTESIAN_POINT('',(17.,31.3092979999937,78.7600734291159));
#470=CARTESIAN_POINT('',(17.,31.2118492514974,78.5));
#471=CARTESIAN_POINT('',(17.,31.2118492514974,78.5));
#472=CARTESIAN_POINT('',(17.,19.7835389162629,58.5));
#473=CARTESIAN_POINT('',(17.,22.2589761200481,61.4584309582851));
#474=CARTESIAN_POINT('',(17.,26.6501859354686,67.9396324552105));
#475=CARTESIAN_POINT('',(17.,29.8633657045531,74.9011365402664));
#476=CARTESIAN_POINT('',(17.,31.2118492514973,78.4999999999999));
#477=CARTESIAN_POINT('',(17.,19.7835389162629,58.5));
#478=CARTESIAN_POINT('',(17.,19.7835389162629,58.5));
#479=CARTESIAN_POINT('',(17.,19.5963515235409,58.2762896280372));
#480=CARTESIAN_POINT('',(16.9308254064025,19.2542081509786,57.8036122857918));
#481=CARTESIAN_POINT('',(16.4745124398152,18.999059615765,57.0499899702508));
#482=CARTESIAN_POINT('',(15.720123778956,19.2236502274233,56.575346130425));
#483=CARTESIAN_POINT('',(15.2324257296959,19.5440991652949,56.5));
#484=CARTESIAN_POINT('',(15.,19.7208856447785,56.5));
#485=CARTESIAN_POINT('',(15.,19.7208856447785,56.5));
#486=CARTESIAN_POINT('',(1.020425574104E-14,0.,56.5));
#487=CARTESIAN_POINT('',(-15.,19.7208856447785,56.5));
#488=CARTESIAN_POINT('',(-15.,19.7208856447785,56.5));
#489=CARTESIAN_POINT('',(-15.2322557576609,19.544228448562,56.5));
#490=CARTESIAN_POINT('',(-15.7196691894413,19.2240739178403,56.5754233904972));
#491=CARTESIAN_POINT('',(-16.4729591496101,18.9990159504336,57.0484002184756));
#492=CARTESIAN_POINT('',(-16.9309253002321,19.2538010082271,57.8032316065454));
#493=CARTESIAN_POINT('',(-17.,19.5961964163297,58.2761042571562));
#494=CARTESIAN_POINT('',(-17.,19.7835389162629,58.5));
#495=CARTESIAN_POINT('',(-17.,19.7835389162629,58.5));
#496=CARTESIAN_POINT('',(-17.,31.2118492514974,78.5));
#497=CARTESIAN_POINT('',(-17.,30.5396053701899,76.7059002900337));
#498=CARTESIAN_POINT('',(-17.,29.0591661676734,73.1595066588091));
#499=CARTESIAN_POINT('',(-17.,25.5052367233086,66.2364269237441));
#500=CARTESIAN_POINT('',(-17.,22.2644421615377,61.4649635038643));
#501=CARTESIAN_POINT('',(-17.,19.7835389162629,58.5));
#502=CARTESIAN_POINT('',(-17.,31.2118492514973,78.5));
#503=CARTESIAN_POINT('',(-17.,31.2118492514973,78.5));
#504=CARTESIAN_POINT('',(-17.,31.3091128544222,78.7595793084175));
#505=CARTESIAN_POINT('',(-17.1015112435783,31.4508646880662,79.293564291593));
#506=CARTESIAN_POINT('',(-17.7495964589917,31.4309893407258,80.2298079067268));
#507=CARTESIAN_POINT('',(-18.5287049133396,31.072743586252,80.5000000000008));
#508=CARTESIAN_POINT('',(-19.0000000000001,30.7818380650277,80.5000000000008));
#509=CARTESIAN_POINT('',(-17.,69.9015684311446,56.5));
#510=CARTESIAN_POINT('',(15.,21.2020912217587,56.5));
#511=CARTESIAN_POINT('',(-15.,18.0253524407827,56.5));
#512=CARTESIAN_POINT('',(-17.,69.9015684311446,89.5));
#513=CARTESIAN_POINT('',(-17.,21.2020912217588,58.5));
#514=CARTESIAN_POINT('',(-17.,69.9015684311446,78.5));
#515=CARTESIAN_POINT('',(17.,69.9015684311446,65.5));
#516=CARTESIAN_POINT('',(17.,69.9015684311446,78.5));
#517=CARTESIAN_POINT('',(17.,18.0253524407967,58.5));
#518=CARTESIAN_POINT('',(-19.,-75.,78.5));
#519=CARTESIAN_POINT('',(19.,-75.,78.5));
#520=CARTESIAN_POINT('',(15.,69.9015684311446,58.5));
#521=CARTESIAN_POINT('',(-15.,69.9015684311446,58.5));
#522=CARTESIAN_POINT('',(0.,0.,10.5));
#523=CARTESIAN_POINT('',(0.,0.,10.5));
#524=CARTESIAN_POINT('',(14.2828568570857,14.,10.5));
#525=CARTESIAN_POINT('',(-14.2828568570857,14.,10.5));
#526=CARTESIAN_POINT('',(20.,14.,10.5));
#527=CARTESIAN_POINT('',(0.,0.,0.));
#528=CARTESIAN_POINT('',(-14.2828568570857,14.,0.));
#529=CARTESIAN_POINT('',(-14.2828568570857,14.,27.7));
#530=CARTESIAN_POINT('',(14.2828568570857,14.,0.));
#531=CARTESIAN_POINT('',(14.2828568570857,14.,27.7));
#532=CARTESIAN_POINT('',(0.,0.,27.7));
#533=CARTESIAN_POINT('',(20.,0.,27.7));
#534=CARTESIAN_POINT('',(20.,14.,27.7));
#535=CARTESIAN_POINT('',(20.,14.,27.7));
#536=CARTESIAN_POINT('',(0.,0.,36.5));
#537=MECHANICAL_DESIGN_GEOMETRIC_PRESENTATION_REPRESENTATION('',(#289),
#538);
#538=(
GEOMETRIC_REPRESENTATION_CONTEXT(3)
GLOBAL_UNCERTAINTY_ASSIGNED_CONTEXT((#539))
GLOBAL_UNIT_ASSIGNED_CONTEXT((#542,#541,#540))
REPRESENTATION_CONTEXT(
'FD-18-0785-565-Entonnoir 2022 facile à fabriquer',
'TOP_LEVEL_ASSEMBLY_PART')
);
#539=UNCERTAINTY_MEASURE_WITH_UNIT(LENGTH_MEASURE(0.005),#542,
'DISTANCE_ACCURACY_VALUE','Maximum Tolerance applied to model');
#540=(
NAMED_UNIT(*)
SI_UNIT($,.STERADIAN.)
SOLID_ANGLE_UNIT()
);
#541=(
NAMED_UNIT(*)
PLANE_ANGLE_UNIT()
SI_UNIT($,.RADIAN.)
);
#542=(
LENGTH_UNIT()
NAMED_UNIT(*)
SI_UNIT(.MILLI.,.METRE.)
);
#543=PRODUCT_DEFINITION_SHAPE('','',#544);
#544=PRODUCT_DEFINITION('','',#546,#545);
#545=DESIGN_CONTEXT('',#552,'design');
#546=PRODUCT_DEFINITION_FORMATION_WITH_SPECIFIED_SOURCE('','',#548,
 .NOT_KNOWN.);
#547=PRODUCT_RELATED_PRODUCT_CATEGORY('','',(#548));
#548=PRODUCT('FD-18-0785-565-Entonnoir 2022 facile à fabriquer',
'FD-18-0785-565-Entonnoir 2022 facile à fabriquer',
'FD-18-0785-565-Entonnoir 2022 facile à fabriquer',(#550));
#549=PRODUCT_CATEGORY('','');
#550=MECHANICAL_CONTEXT('',#552,'mechanical');
#551=APPLICATION_PROTOCOL_DEFINITION('international standard',
'config_control_design',2010,#552);
#552=APPLICATION_CONTEXT(
'configuration controlled 3D designs of mechanical parts and assemblie
s');
ENDSEC;
END-ISO-10303-21;
