ISO-10303-21;
HEADER;
/* Generated by software containing ST-Developer
 * from STEP Tools, Inc. (www.steptools.com) 
 */

FILE_DESCRIPTION(
/* description */ (''),
/* implementation_level */ '2;1');

FILE_NAME(
/* name */ 
'C:/Users/thomas/Documents/Platine interm\X\E9diaire COBOTTA v19.step',

/* time_stamp */ '2022-03-08T16:22:57+01:00',
/* author */ (''),
/* organization */ (''),
/* preprocessor_version */ 'ST-DEVELOPER v18.1',
/* originating_system */ 'Autodesk Translation Framework v10.13.0.1454',

/* authorisation */ '');

FILE_SCHEMA (('AUTOMOTIVE_DESIGN { 1 0 10303 214 3 1 1 }'));
ENDSEC;

DATA;
#10=MECHANICAL_DESIGN_GEOMETRIC_PRESENTATION_REPRESENTATION('',(#13),#498);
#11=SHAPE_REPRESENTATION_RELATIONSHIP('SRR','None',#504,#12);
#12=ADVANCED_BREP_SHAPE_REPRESENTATION('',(#14),#497);
#13=STYLED_ITEM('',(#513),#14);
#14=MANIFOLD_SOLID_BREP('Body4',#282);
#15=FACE_BOUND('',#66,.T.);
#16=FACE_BOUND('',#67,.T.);
#17=FACE_BOUND('',#68,.T.);
#18=FACE_BOUND('',#69,.T.);
#19=FACE_BOUND('',#70,.T.);
#20=FACE_BOUND('',#71,.T.);
#21=FACE_BOUND('',#72,.T.);
#22=FACE_BOUND('',#73,.T.);
#23=FACE_BOUND('',#75,.T.);
#24=FACE_BOUND('',#76,.T.);
#25=FACE_BOUND('',#77,.T.);
#26=FACE_BOUND('',#78,.T.);
#27=FACE_BOUND('',#79,.T.);
#28=FACE_BOUND('',#80,.T.);
#29=FACE_BOUND('',#81,.T.);
#30=FACE_BOUND('',#82,.T.);
#31=PLANE('',#331);
#32=PLANE('',#332);
#33=CONICAL_SURFACE('',#308,0.00155,0.785398163397448);
#34=CONICAL_SURFACE('',#313,0.00155,0.785398163397448);
#35=CONICAL_SURFACE('',#318,0.00155,0.785398163397448);
#36=CONICAL_SURFACE('',#323,0.00155,0.785398163397448);
#37=FACE_OUTER_BOUND('',#52,.T.);
#38=FACE_OUTER_BOUND('',#53,.T.);
#39=FACE_OUTER_BOUND('',#54,.T.);
#40=FACE_OUTER_BOUND('',#55,.T.);
#41=FACE_OUTER_BOUND('',#56,.T.);
#42=FACE_OUTER_BOUND('',#57,.T.);
#43=FACE_OUTER_BOUND('',#58,.T.);
#44=FACE_OUTER_BOUND('',#59,.T.);
#45=FACE_OUTER_BOUND('',#60,.T.);
#46=FACE_OUTER_BOUND('',#61,.T.);
#47=FACE_OUTER_BOUND('',#62,.T.);
#48=FACE_OUTER_BOUND('',#63,.T.);
#49=FACE_OUTER_BOUND('',#64,.T.);
#50=FACE_OUTER_BOUND('',#65,.T.);
#51=FACE_OUTER_BOUND('',#74,.T.);
#52=EDGE_LOOP('',(#188,#189,#190,#191));
#53=EDGE_LOOP('',(#192,#193,#194,#195));
#54=EDGE_LOOP('',(#196,#197,#198,#199));
#55=EDGE_LOOP('',(#200,#201,#202,#203));
#56=EDGE_LOOP('',(#204,#205,#206,#207));
#57=EDGE_LOOP('',(#208,#209,#210,#211));
#58=EDGE_LOOP('',(#212,#213,#214,#215));
#59=EDGE_LOOP('',(#216,#217,#218,#219));
#60=EDGE_LOOP('',(#220,#221,#222,#223));
#61=EDGE_LOOP('',(#224,#225,#226,#227));
#62=EDGE_LOOP('',(#228,#229,#230,#231));
#63=EDGE_LOOP('',(#232,#233,#234,#235));
#64=EDGE_LOOP('',(#236,#237,#238,#239));
#65=EDGE_LOOP('',(#240));
#66=EDGE_LOOP('',(#241));
#67=EDGE_LOOP('',(#242));
#68=EDGE_LOOP('',(#243));
#69=EDGE_LOOP('',(#244));
#70=EDGE_LOOP('',(#245));
#71=EDGE_LOOP('',(#246));
#72=EDGE_LOOP('',(#247));
#73=EDGE_LOOP('',(#248));
#74=EDGE_LOOP('',(#249));
#75=EDGE_LOOP('',(#250));
#76=EDGE_LOOP('',(#251));
#77=EDGE_LOOP('',(#252));
#78=EDGE_LOOP('',(#253));
#79=EDGE_LOOP('',(#254));
#80=EDGE_LOOP('',(#255));
#81=EDGE_LOOP('',(#256));
#82=EDGE_LOOP('',(#257));
#83=LINE('',#427,#96);
#84=LINE('',#433,#97);
#85=LINE('',#439,#98);
#86=LINE('',#445,#99);
#87=LINE('',#451,#100);
#88=LINE('',#455,#101);
#89=LINE('',#461,#102);
#90=LINE('',#465,#103);
#91=LINE('',#471,#104);
#92=LINE('',#475,#105);
#93=LINE('',#481,#106);
#94=LINE('',#485,#107);
#95=LINE('',#491,#108);
#96=VECTOR('',#339,0.0015);
#97=VECTOR('',#346,0.0015);
#98=VECTOR('',#353,0.0025);
#99=VECTOR('',#360,0.0025);
#100=VECTOR('',#367,0.00155);
#101=VECTOR('',#372,0.00135);
#102=VECTOR('',#379,0.00155);
#103=VECTOR('',#384,0.00135);
#104=VECTOR('',#391,0.00155);
#105=VECTOR('',#396,0.00135);
#106=VECTOR('',#403,0.00155);
#107=VECTOR('',#408,0.00135);
#108=VECTOR('',#415,0.0175);
#109=CIRCLE('',#297,0.0015);
#110=CIRCLE('',#298,0.0015);
#111=CIRCLE('',#300,0.0015);
#112=CIRCLE('',#301,0.0015);
#113=CIRCLE('',#303,0.00226435);
#114=CIRCLE('',#304,0.00226435);
#115=CIRCLE('',#306,0.00226435);
#116=CIRCLE('',#307,0.00226435);
#117=CIRCLE('',#309,0.00175);
#118=CIRCLE('',#310,0.00135);
#119=CIRCLE('',#312,0.00135);
#120=CIRCLE('',#314,0.00175);
#121=CIRCLE('',#315,0.00135);
#122=CIRCLE('',#317,0.00135);
#123=CIRCLE('',#319,0.00175);
#124=CIRCLE('',#320,0.00135);
#125=CIRCLE('',#322,0.00135);
#126=CIRCLE('',#324,0.00175);
#127=CIRCLE('',#325,0.00135);
#128=CIRCLE('',#327,0.00135);
#129=CIRCLE('',#329,0.0175);
#130=CIRCLE('',#330,0.0175);
#131=VERTEX_POINT('',#424);
#132=VERTEX_POINT('',#426);
#133=VERTEX_POINT('',#430);
#134=VERTEX_POINT('',#432);
#135=VERTEX_POINT('',#436);
#136=VERTEX_POINT('',#438);
#137=VERTEX_POINT('',#442);
#138=VERTEX_POINT('',#444);
#139=VERTEX_POINT('',#448);
#140=VERTEX_POINT('',#450);
#141=VERTEX_POINT('',#454);
#142=VERTEX_POINT('',#458);
#143=VERTEX_POINT('',#460);
#144=VERTEX_POINT('',#464);
#145=VERTEX_POINT('',#468);
#146=VERTEX_POINT('',#470);
#147=VERTEX_POINT('',#474);
#148=VERTEX_POINT('',#478);
#149=VERTEX_POINT('',#480);
#150=VERTEX_POINT('',#484);
#151=VERTEX_POINT('',#488);
#152=VERTEX_POINT('',#490);
#153=EDGE_CURVE('',#131,#131,#109,.T.);
#154=EDGE_CURVE('',#131,#132,#83,.T.);
#155=EDGE_CURVE('',#132,#132,#110,.T.);
#156=EDGE_CURVE('',#133,#133,#111,.T.);
#157=EDGE_CURVE('',#133,#134,#84,.T.);
#158=EDGE_CURVE('',#134,#134,#112,.T.);
#159=EDGE_CURVE('',#135,#135,#113,.T.);
#160=EDGE_CURVE('',#135,#136,#85,.T.);
#161=EDGE_CURVE('',#136,#136,#114,.F.);
#162=EDGE_CURVE('',#137,#137,#115,.T.);
#163=EDGE_CURVE('',#137,#138,#86,.T.);
#164=EDGE_CURVE('',#138,#138,#116,.F.);
#165=EDGE_CURVE('',#139,#139,#117,.T.);
#166=EDGE_CURVE('',#139,#140,#87,.T.);
#167=EDGE_CURVE('',#140,#140,#118,.T.);
#168=EDGE_CURVE('',#140,#141,#88,.T.);
#169=EDGE_CURVE('',#141,#141,#119,.T.);
#170=EDGE_CURVE('',#142,#142,#120,.T.);
#171=EDGE_CURVE('',#142,#143,#89,.T.);
#172=EDGE_CURVE('',#143,#143,#121,.T.);
#173=EDGE_CURVE('',#143,#144,#90,.T.);
#174=EDGE_CURVE('',#144,#144,#122,.T.);
#175=EDGE_CURVE('',#145,#145,#123,.T.);
#176=EDGE_CURVE('',#145,#146,#91,.T.);
#177=EDGE_CURVE('',#146,#146,#124,.T.);
#178=EDGE_CURVE('',#146,#147,#92,.T.);
#179=EDGE_CURVE('',#147,#147,#125,.T.);
#180=EDGE_CURVE('',#148,#148,#126,.T.);
#181=EDGE_CURVE('',#148,#149,#93,.T.);
#182=EDGE_CURVE('',#149,#149,#127,.T.);
#183=EDGE_CURVE('',#149,#150,#94,.T.);
#184=EDGE_CURVE('',#150,#150,#128,.T.);
#185=EDGE_CURVE('',#151,#151,#129,.T.);
#186=EDGE_CURVE('',#151,#152,#95,.T.);
#187=EDGE_CURVE('',#152,#152,#130,.T.);
#188=ORIENTED_EDGE('',*,*,#153,.F.);
#189=ORIENTED_EDGE('',*,*,#154,.T.);
#190=ORIENTED_EDGE('',*,*,#155,.F.);
#191=ORIENTED_EDGE('',*,*,#154,.F.);
#192=ORIENTED_EDGE('',*,*,#156,.F.);
#193=ORIENTED_EDGE('',*,*,#157,.T.);
#194=ORIENTED_EDGE('',*,*,#158,.F.);
#195=ORIENTED_EDGE('',*,*,#157,.F.);
#196=ORIENTED_EDGE('',*,*,#159,.F.);
#197=ORIENTED_EDGE('',*,*,#160,.T.);
#198=ORIENTED_EDGE('',*,*,#161,.F.);
#199=ORIENTED_EDGE('',*,*,#160,.F.);
#200=ORIENTED_EDGE('',*,*,#162,.F.);
#201=ORIENTED_EDGE('',*,*,#163,.T.);
#202=ORIENTED_EDGE('',*,*,#164,.F.);
#203=ORIENTED_EDGE('',*,*,#163,.F.);
#204=ORIENTED_EDGE('',*,*,#165,.F.);
#205=ORIENTED_EDGE('',*,*,#166,.T.);
#206=ORIENTED_EDGE('',*,*,#167,.T.);
#207=ORIENTED_EDGE('',*,*,#166,.F.);
#208=ORIENTED_EDGE('',*,*,#167,.F.);
#209=ORIENTED_EDGE('',*,*,#168,.T.);
#210=ORIENTED_EDGE('',*,*,#169,.F.);
#211=ORIENTED_EDGE('',*,*,#168,.F.);
#212=ORIENTED_EDGE('',*,*,#170,.F.);
#213=ORIENTED_EDGE('',*,*,#171,.T.);
#214=ORIENTED_EDGE('',*,*,#172,.T.);
#215=ORIENTED_EDGE('',*,*,#171,.F.);
#216=ORIENTED_EDGE('',*,*,#172,.F.);
#217=ORIENTED_EDGE('',*,*,#173,.T.);
#218=ORIENTED_EDGE('',*,*,#174,.F.);
#219=ORIENTED_EDGE('',*,*,#173,.F.);
#220=ORIENTED_EDGE('',*,*,#175,.F.);
#221=ORIENTED_EDGE('',*,*,#176,.T.);
#222=ORIENTED_EDGE('',*,*,#177,.T.);
#223=ORIENTED_EDGE('',*,*,#176,.F.);
#224=ORIENTED_EDGE('',*,*,#177,.F.);
#225=ORIENTED_EDGE('',*,*,#178,.T.);
#226=ORIENTED_EDGE('',*,*,#179,.F.);
#227=ORIENTED_EDGE('',*,*,#178,.F.);
#228=ORIENTED_EDGE('',*,*,#180,.F.);
#229=ORIENTED_EDGE('',*,*,#181,.T.);
#230=ORIENTED_EDGE('',*,*,#182,.T.);
#231=ORIENTED_EDGE('',*,*,#181,.F.);
#232=ORIENTED_EDGE('',*,*,#182,.F.);
#233=ORIENTED_EDGE('',*,*,#183,.T.);
#234=ORIENTED_EDGE('',*,*,#184,.F.);
#235=ORIENTED_EDGE('',*,*,#183,.F.);
#236=ORIENTED_EDGE('',*,*,#185,.F.);
#237=ORIENTED_EDGE('',*,*,#186,.T.);
#238=ORIENTED_EDGE('',*,*,#187,.T.);
#239=ORIENTED_EDGE('',*,*,#186,.F.);
#240=ORIENTED_EDGE('',*,*,#185,.T.);
#241=ORIENTED_EDGE('',*,*,#153,.T.);
#242=ORIENTED_EDGE('',*,*,#156,.T.);
#243=ORIENTED_EDGE('',*,*,#159,.T.);
#244=ORIENTED_EDGE('',*,*,#162,.T.);
#245=ORIENTED_EDGE('',*,*,#165,.T.);
#246=ORIENTED_EDGE('',*,*,#170,.T.);
#247=ORIENTED_EDGE('',*,*,#175,.T.);
#248=ORIENTED_EDGE('',*,*,#180,.T.);
#249=ORIENTED_EDGE('',*,*,#187,.F.);
#250=ORIENTED_EDGE('',*,*,#155,.T.);
#251=ORIENTED_EDGE('',*,*,#158,.T.);
#252=ORIENTED_EDGE('',*,*,#161,.T.);
#253=ORIENTED_EDGE('',*,*,#164,.T.);
#254=ORIENTED_EDGE('',*,*,#169,.T.);
#255=ORIENTED_EDGE('',*,*,#174,.T.);
#256=ORIENTED_EDGE('',*,*,#179,.T.);
#257=ORIENTED_EDGE('',*,*,#184,.T.);
#258=CYLINDRICAL_SURFACE('',#296,0.0015);
#259=CYLINDRICAL_SURFACE('',#299,0.0015);
#260=CYLINDRICAL_SURFACE('',#302,0.00226435);
#261=CYLINDRICAL_SURFACE('',#305,0.00226435);
#262=CYLINDRICAL_SURFACE('',#311,0.00135);
#263=CYLINDRICAL_SURFACE('',#316,0.00135);
#264=CYLINDRICAL_SURFACE('',#321,0.00135);
#265=CYLINDRICAL_SURFACE('',#326,0.00135);
#266=CYLINDRICAL_SURFACE('',#328,0.0175);
#267=ADVANCED_FACE('',(#37),#258,.F.);
#268=ADVANCED_FACE('',(#38),#259,.F.);
#269=ADVANCED_FACE('',(#39),#260,.F.);
#270=ADVANCED_FACE('',(#40),#261,.F.);
#271=ADVANCED_FACE('',(#41),#33,.F.);
#272=ADVANCED_FACE('',(#42),#262,.F.);
#273=ADVANCED_FACE('',(#43),#34,.F.);
#274=ADVANCED_FACE('',(#44),#263,.F.);
#275=ADVANCED_FACE('',(#45),#35,.F.);
#276=ADVANCED_FACE('',(#46),#264,.F.);
#277=ADVANCED_FACE('',(#47),#36,.F.);
#278=ADVANCED_FACE('',(#48),#265,.F.);
#279=ADVANCED_FACE('',(#49),#266,.T.);
#280=ADVANCED_FACE('',(#50,#15,#16,#17,#18,#19,#20,#21,#22),#31,.T.);
#281=ADVANCED_FACE('',(#51,#23,#24,#25,#26,#27,#28,#29,#30),#32,.F.);
#282=CLOSED_SHELL('',(#267,#268,#269,#270,#271,#272,#273,#274,#275,#276,
#277,#278,#279,#280,#281));
#283=DERIVED_UNIT_ELEMENT(#285,1.);
#284=DERIVED_UNIT_ELEMENT(#499,-3.);
#285=(
MASS_UNIT()
NAMED_UNIT(*)
SI_UNIT(.KILO.,.GRAM.)
);
#286=DERIVED_UNIT((#283,#284));
#287=MEASURE_REPRESENTATION_ITEM('density measure',
POSITIVE_RATIO_MEASURE(7850.),#286);
#288=PROPERTY_DEFINITION_REPRESENTATION(#293,#290);
#289=PROPERTY_DEFINITION_REPRESENTATION(#294,#291);
#290=REPRESENTATION('material name',(#292),#497);
#291=REPRESENTATION('density',(#287),#497);
#292=DESCRIPTIVE_REPRESENTATION_ITEM('Steel','Steel');
#293=PROPERTY_DEFINITION('material property','material name',#506);
#294=PROPERTY_DEFINITION('material property','density of part',#506);
#295=AXIS2_PLACEMENT_3D('placement',#422,#333,#334);
#296=AXIS2_PLACEMENT_3D('',#423,#335,#336);
#297=AXIS2_PLACEMENT_3D('',#425,#337,#338);
#298=AXIS2_PLACEMENT_3D('',#428,#340,#341);
#299=AXIS2_PLACEMENT_3D('',#429,#342,#343);
#300=AXIS2_PLACEMENT_3D('',#431,#344,#345);
#301=AXIS2_PLACEMENT_3D('',#434,#347,#348);
#302=AXIS2_PLACEMENT_3D('',#435,#349,#350);
#303=AXIS2_PLACEMENT_3D('',#437,#351,#352);
#304=AXIS2_PLACEMENT_3D('',#440,#354,#355);
#305=AXIS2_PLACEMENT_3D('',#441,#356,#357);
#306=AXIS2_PLACEMENT_3D('',#443,#358,#359);
#307=AXIS2_PLACEMENT_3D('',#446,#361,#362);
#308=AXIS2_PLACEMENT_3D('',#447,#363,#364);
#309=AXIS2_PLACEMENT_3D('',#449,#365,#366);
#310=AXIS2_PLACEMENT_3D('',#452,#368,#369);
#311=AXIS2_PLACEMENT_3D('',#453,#370,#371);
#312=AXIS2_PLACEMENT_3D('',#456,#373,#374);
#313=AXIS2_PLACEMENT_3D('',#457,#375,#376);
#314=AXIS2_PLACEMENT_3D('',#459,#377,#378);
#315=AXIS2_PLACEMENT_3D('',#462,#380,#381);
#316=AXIS2_PLACEMENT_3D('',#463,#382,#383);
#317=AXIS2_PLACEMENT_3D('',#466,#385,#386);
#318=AXIS2_PLACEMENT_3D('',#467,#387,#388);
#319=AXIS2_PLACEMENT_3D('',#469,#389,#390);
#320=AXIS2_PLACEMENT_3D('',#472,#392,#393);
#321=AXIS2_PLACEMENT_3D('',#473,#394,#395);
#322=AXIS2_PLACEMENT_3D('',#476,#397,#398);
#323=AXIS2_PLACEMENT_3D('',#477,#399,#400);
#324=AXIS2_PLACEMENT_3D('',#479,#401,#402);
#325=AXIS2_PLACEMENT_3D('',#482,#404,#405);
#326=AXIS2_PLACEMENT_3D('',#483,#406,#407);
#327=AXIS2_PLACEMENT_3D('',#486,#409,#410);
#328=AXIS2_PLACEMENT_3D('',#487,#411,#412);
#329=AXIS2_PLACEMENT_3D('',#489,#413,#414);
#330=AXIS2_PLACEMENT_3D('',#492,#416,#417);
#331=AXIS2_PLACEMENT_3D('',#493,#418,#419);
#332=AXIS2_PLACEMENT_3D('',#494,#420,#421);
#333=DIRECTION('axis',(0.,0.,1.));
#334=DIRECTION('refdir',(1.,0.,0.));
#335=DIRECTION('center_axis',(0.,0.,-1.));
#336=DIRECTION('ref_axis',(1.,0.,0.));
#337=DIRECTION('center_axis',(0.,0.,-1.));
#338=DIRECTION('ref_axis',(1.,0.,0.));
#339=DIRECTION('',(0.,0.,-1.));
#340=DIRECTION('center_axis',(0.,0.,1.));
#341=DIRECTION('ref_axis',(1.,0.,0.));
#342=DIRECTION('center_axis',(0.,0.,-1.));
#343=DIRECTION('ref_axis',(1.,0.,0.));
#344=DIRECTION('center_axis',(0.,0.,-1.));
#345=DIRECTION('ref_axis',(1.,0.,0.));
#346=DIRECTION('',(0.,0.,-1.));
#347=DIRECTION('center_axis',(0.,0.,1.));
#348=DIRECTION('ref_axis',(1.,0.,0.));
#349=DIRECTION('center_axis',(0.,0.,-1.));
#350=DIRECTION('ref_axis',(1.,0.,0.));
#351=DIRECTION('center_axis',(0.,0.,-1.));
#352=DIRECTION('ref_axis',(1.,0.,0.));
#353=DIRECTION('',(0.,0.,-1.));
#354=DIRECTION('center_axis',(0.,0.,-1.));
#355=DIRECTION('ref_axis',(1.,0.,0.));
#356=DIRECTION('center_axis',(0.,0.,-1.));
#357=DIRECTION('ref_axis',(1.,0.,0.));
#358=DIRECTION('center_axis',(0.,0.,-1.));
#359=DIRECTION('ref_axis',(1.,0.,0.));
#360=DIRECTION('',(0.,0.,-1.));
#361=DIRECTION('center_axis',(0.,0.,-1.));
#362=DIRECTION('ref_axis',(1.,0.,0.));
#363=DIRECTION('center_axis',(0.,0.,1.));
#364=DIRECTION('ref_axis',(1.,0.,0.));
#365=DIRECTION('center_axis',(0.,0.,-1.));
#366=DIRECTION('ref_axis',(1.,0.,0.));
#367=DIRECTION('',(0.707106781186547,-8.65956056235493E-17,-0.707106781186548));
#368=DIRECTION('center_axis',(0.,0.,-1.));
#369=DIRECTION('ref_axis',(1.,0.,0.));
#370=DIRECTION('center_axis',(0.,0.,-1.));
#371=DIRECTION('ref_axis',(1.,0.,0.));
#372=DIRECTION('',(0.,0.,-1.));
#373=DIRECTION('center_axis',(0.,0.,1.));
#374=DIRECTION('ref_axis',(1.,0.,0.));
#375=DIRECTION('center_axis',(0.,0.,1.));
#376=DIRECTION('ref_axis',(1.,0.,0.));
#377=DIRECTION('center_axis',(0.,0.,-1.));
#378=DIRECTION('ref_axis',(1.,0.,0.));
#379=DIRECTION('',(0.707106781186547,-8.65956056235493E-17,-0.707106781186548));
#380=DIRECTION('center_axis',(0.,0.,-1.));
#381=DIRECTION('ref_axis',(1.,0.,0.));
#382=DIRECTION('center_axis',(0.,0.,-1.));
#383=DIRECTION('ref_axis',(1.,0.,0.));
#384=DIRECTION('',(0.,0.,-1.));
#385=DIRECTION('center_axis',(0.,0.,1.));
#386=DIRECTION('ref_axis',(1.,0.,0.));
#387=DIRECTION('center_axis',(0.,0.,1.));
#388=DIRECTION('ref_axis',(1.,0.,0.));
#389=DIRECTION('center_axis',(0.,0.,-1.));
#390=DIRECTION('ref_axis',(1.,0.,0.));
#391=DIRECTION('',(0.707106781186547,-8.65956056235493E-17,-0.707106781186548));
#392=DIRECTION('center_axis',(0.,0.,-1.));
#393=DIRECTION('ref_axis',(1.,0.,0.));
#394=DIRECTION('center_axis',(0.,0.,-1.));
#395=DIRECTION('ref_axis',(1.,0.,0.));
#396=DIRECTION('',(0.,0.,-1.));
#397=DIRECTION('center_axis',(0.,0.,1.));
#398=DIRECTION('ref_axis',(1.,0.,0.));
#399=DIRECTION('center_axis',(0.,0.,1.));
#400=DIRECTION('ref_axis',(1.,0.,0.));
#401=DIRECTION('center_axis',(0.,0.,-1.));
#402=DIRECTION('ref_axis',(1.,0.,0.));
#403=DIRECTION('',(0.707106781186547,-8.65956056235493E-17,-0.707106781186548));
#404=DIRECTION('center_axis',(0.,0.,-1.));
#405=DIRECTION('ref_axis',(1.,0.,0.));
#406=DIRECTION('center_axis',(0.,0.,-1.));
#407=DIRECTION('ref_axis',(1.,0.,0.));
#408=DIRECTION('',(0.,0.,-1.));
#409=DIRECTION('center_axis',(0.,0.,1.));
#410=DIRECTION('ref_axis',(1.,0.,0.));
#411=DIRECTION('center_axis',(0.,0.,1.));
#412=DIRECTION('ref_axis',(1.,0.,0.));
#413=DIRECTION('center_axis',(0.,0.,1.));
#414=DIRECTION('ref_axis',(1.,0.,0.));
#415=DIRECTION('',(0.,0.,-1.));
#416=DIRECTION('center_axis',(0.,0.,1.));
#417=DIRECTION('ref_axis',(1.,0.,0.));
#418=DIRECTION('center_axis',(0.,0.,1.));
#419=DIRECTION('ref_axis',(1.,0.,0.));
#420=DIRECTION('center_axis',(0.,0.,1.));
#421=DIRECTION('ref_axis',(1.,0.,0.));
#422=CARTESIAN_POINT('',(0.,0.,0.));
#423=CARTESIAN_POINT('Origin',(0.,0.,0.0005));
#424=CARTESIAN_POINT('',(-0.0015,1.83697019872103E-19,0.005));
#425=CARTESIAN_POINT('Origin',(0.,0.,0.005));
#426=CARTESIAN_POINT('',(-0.0015,-1.83697019872103E-19,0.));
#427=CARTESIAN_POINT('',(-0.0015,1.83697019872103E-19,0.0005));
#428=CARTESIAN_POINT('Origin',(0.,0.,0.));
#429=CARTESIAN_POINT('Origin',(0.,0.0140000002086163,0.0005));
#430=CARTESIAN_POINT('',(-0.0015,0.0140000002086163,0.005));
#431=CARTESIAN_POINT('Origin',(0.,0.0140000002086163,0.005));
#432=CARTESIAN_POINT('',(-0.0015,0.0140000002086163,0.));
#433=CARTESIAN_POINT('',(-0.0015,0.0140000002086163,0.0005));
#434=CARTESIAN_POINT('Origin',(0.,0.0140000002086163,0.));
#435=CARTESIAN_POINT('Origin',(0.0130000001937151,0.,0.0005));
#436=CARTESIAN_POINT('',(0.0107356501937151,2.77302897964931E-19,0.005));
#437=CARTESIAN_POINT('Origin',(0.0130000001937151,0.,0.005));
#438=CARTESIAN_POINT('',(0.0107356501937151,2.77302897964931E-19,0.));
#439=CARTESIAN_POINT('',(0.0107356501937151,2.77302897964931E-19,0.0005));
#440=CARTESIAN_POINT('Origin',(0.0130000001937151,0.,0.));
#441=CARTESIAN_POINT('Origin',(-0.0130000001937151,1.59204086261482E-18,
0.0005));
#442=CARTESIAN_POINT('',(-0.0152643501937151,1.86934376057975E-18,0.005));
#443=CARTESIAN_POINT('Origin',(-0.0130000001937151,1.59204086261482E-18,
0.005));
#444=CARTESIAN_POINT('',(-0.0152643501937151,1.86934376057975E-18,0.));
#445=CARTESIAN_POINT('',(-0.0152643501937151,1.86934376057975E-18,0.0005));
#446=CARTESIAN_POINT('Origin',(-0.0130000001937151,1.59204086261482E-18,
0.));
#447=CARTESIAN_POINT('Origin',(0.00883883476483184,0.00883883476483184,
0.0048));
#448=CARTESIAN_POINT('',(0.00708883476483184,0.00883883476483184,0.005));
#449=CARTESIAN_POINT('Origin',(0.00883883476483184,0.00883883476483184,
0.005));
#450=CARTESIAN_POINT('',(0.00748883476483184,0.00883883476483184,0.0046));
#451=CARTESIAN_POINT('',(0.00728883476483184,0.00883883476483184,0.0048));
#452=CARTESIAN_POINT('Origin',(0.00883883476483184,0.00883883476483184,
0.0046));
#453=CARTESIAN_POINT('Origin',(0.00883883476483184,0.00883883476483184,
0.0005));
#454=CARTESIAN_POINT('',(0.00748883476483184,0.00883883476483184,0.));
#455=CARTESIAN_POINT('',(0.00748883476483184,0.00883883476483184,0.0005));
#456=CARTESIAN_POINT('Origin',(0.00883883476483184,0.00883883476483184,
0.));
#457=CARTESIAN_POINT('Origin',(-0.00883883476483185,-0.00883883476483184,
0.0048));
#458=CARTESIAN_POINT('',(-0.0105888347648318,-0.00883883476483184,0.005));
#459=CARTESIAN_POINT('Origin',(-0.00883883476483185,-0.00883883476483184,
0.005));
#460=CARTESIAN_POINT('',(-0.0101888347648318,-0.00883883476483184,0.0046));
#461=CARTESIAN_POINT('',(-0.0103888347648318,-0.00883883476483184,0.0048));
#462=CARTESIAN_POINT('Origin',(-0.00883883476483185,-0.00883883476483184,
0.0046));
#463=CARTESIAN_POINT('Origin',(-0.00883883476483185,-0.00883883476483184,
0.0005));
#464=CARTESIAN_POINT('',(-0.0101888347648318,-0.00883883476483184,0.));
#465=CARTESIAN_POINT('',(-0.0101888347648318,-0.00883883476483184,0.0005));
#466=CARTESIAN_POINT('Origin',(-0.00883883476483185,-0.00883883476483184,
0.));
#467=CARTESIAN_POINT('Origin',(0.00883883476483184,-0.00883883476483185,
0.0048));
#468=CARTESIAN_POINT('',(0.00708883476483184,-0.00883883476483185,0.005));
#469=CARTESIAN_POINT('Origin',(0.00883883476483184,-0.00883883476483185,
0.005));
#470=CARTESIAN_POINT('',(0.00748883476483184,-0.00883883476483185,0.0046));
#471=CARTESIAN_POINT('',(0.00728883476483184,-0.00883883476483185,0.0048));
#472=CARTESIAN_POINT('Origin',(0.00883883476483184,-0.00883883476483185,
0.0046));
#473=CARTESIAN_POINT('Origin',(0.00883883476483184,-0.00883883476483185,
0.0005));
#474=CARTESIAN_POINT('',(0.00748883476483184,-0.00883883476483185,0.));
#475=CARTESIAN_POINT('',(0.00748883476483184,-0.00883883476483185,0.0005));
#476=CARTESIAN_POINT('Origin',(0.00883883476483184,-0.00883883476483185,
0.));
#477=CARTESIAN_POINT('Origin',(-0.00883883476483185,0.00883883476483184,
0.0048));
#478=CARTESIAN_POINT('',(-0.0105888347648318,0.00883883476483184,0.005));
#479=CARTESIAN_POINT('Origin',(-0.00883883476483185,0.00883883476483184,
0.005));
#480=CARTESIAN_POINT('',(-0.0101888347648318,0.00883883476483184,0.0046));
#481=CARTESIAN_POINT('',(-0.0103888347648318,0.00883883476483184,0.0048));
#482=CARTESIAN_POINT('Origin',(-0.00883883476483185,0.00883883476483184,
0.0046));
#483=CARTESIAN_POINT('Origin',(-0.00883883476483185,0.00883883476483184,
0.0005));
#484=CARTESIAN_POINT('',(-0.0101888347648318,0.00883883476483184,0.));
#485=CARTESIAN_POINT('',(-0.0101888347648318,0.00883883476483184,0.0005));
#486=CARTESIAN_POINT('Origin',(-0.00883883476483185,0.00883883476483184,
0.));
#487=CARTESIAN_POINT('Origin',(0.,0.,0.));
#488=CARTESIAN_POINT('',(-0.0175,-2.14313189850787E-18,0.005));
#489=CARTESIAN_POINT('Origin',(0.,0.,0.005));
#490=CARTESIAN_POINT('',(-0.0175,-2.14313189850787E-18,0.));
#491=CARTESIAN_POINT('',(-0.0175,-2.14313189850787E-18,0.));
#492=CARTESIAN_POINT('Origin',(0.,0.,0.));
#493=CARTESIAN_POINT('Origin',(0.,0.,0.005));
#494=CARTESIAN_POINT('Origin',(0.,0.,0.));
#495=UNCERTAINTY_MEASURE_WITH_UNIT(LENGTH_MEASURE(1.E-5),#499,
'DISTANCE_ACCURACY_VALUE',
'Maximum model space distance between geometric entities at asserted c
onnectivities');
#496=UNCERTAINTY_MEASURE_WITH_UNIT(LENGTH_MEASURE(1.E-5),#499,
'DISTANCE_ACCURACY_VALUE',
'Maximum model space distance between geometric entities at asserted c
onnectivities');
#497=(
GEOMETRIC_REPRESENTATION_CONTEXT(3)
GLOBAL_UNCERTAINTY_ASSIGNED_CONTEXT((#495))
GLOBAL_UNIT_ASSIGNED_CONTEXT((#499,#500,#501))
REPRESENTATION_CONTEXT('','3D')
);
#498=(
GEOMETRIC_REPRESENTATION_CONTEXT(3)
GLOBAL_UNCERTAINTY_ASSIGNED_CONTEXT((#496))
GLOBAL_UNIT_ASSIGNED_CONTEXT((#499,#500,#501))
REPRESENTATION_CONTEXT('','3D')
);
#499=(
LENGTH_UNIT()
NAMED_UNIT(*)
SI_UNIT($,.METRE.)
);
#500=(
NAMED_UNIT(*)
PLANE_ANGLE_UNIT()
SI_UNIT($,.RADIAN.)
);
#501=(
NAMED_UNIT(*)
SI_UNIT($,.STERADIAN.)
SOLID_ANGLE_UNIT()
);
#502=SHAPE_DEFINITION_REPRESENTATION(#503,#504);
#503=PRODUCT_DEFINITION_SHAPE('',$,#506);
#504=SHAPE_REPRESENTATION('',(#295),#497);
#505=PRODUCT_DEFINITION_CONTEXT('part definition',#510,'design');
#506=PRODUCT_DEFINITION('Platine interm\X\E9diaire COBOTTA',
'Platine interm\X\E9diaire COBOTTA v19',#507,#505);
#507=PRODUCT_DEFINITION_FORMATION('',$,#512);
#508=PRODUCT_RELATED_PRODUCT_CATEGORY(
'Platine interm\X\E9diaire COBOTTA v19',
'Platine interm\X\E9diaire COBOTTA v19',(#512));
#509=APPLICATION_PROTOCOL_DEFINITION('international standard',
'automotive_design',2009,#510);
#510=APPLICATION_CONTEXT(
'Core Data for Automotive Mechanical Design Process');
#511=PRODUCT_CONTEXT('part definition',#510,'mechanical');
#512=PRODUCT('Platine interm\X\E9diaire COBOTTA',
'Platine interm\X\E9diaire COBOTTA v19',$,(#511));
#513=PRESENTATION_STYLE_ASSIGNMENT((#514));
#514=SURFACE_STYLE_USAGE(.BOTH.,#515);
#515=SURFACE_SIDE_STYLE('',(#516));
#516=SURFACE_STYLE_FILL_AREA(#517);
#517=FILL_AREA_STYLE('Steel - Satin',(#518));
#518=FILL_AREA_STYLE_COLOUR('Steel - Satin',#519);
#519=COLOUR_RGB('Steel - Satin',0.627450980392157,0.627450980392157,0.627450980392157);
ENDSEC;
END-ISO-10303-21;
