ISO-10303-21;
HEADER;
/* Generated by software containing ST-Developer
 * from STEP Tools, Inc. (www.steptools.com) 
 */

FILE_DESCRIPTION(
/* description */ (''),
/* implementation_level */ '2;1');

FILE_NAME(
/* name */ 'C:/Users/Hadrien/Downloads/insert alu v1.step',
/* time_stamp */ '2022-03-11T18:46:11+01:00',
/* author */ (''),
/* organization */ (''),
/* preprocessor_version */ 'ST-DEVELOPER v18.1',
/* originating_system */ 'Autodesk Translation Framework v10.13.0.1454',

/* authorisation */ '');

FILE_SCHEMA (('AUTOMOTIVE_DESIGN { 1 0 10303 214 3 1 1 }'));
ENDSEC;

DATA;
#10=MECHANICAL_DESIGN_GEOMETRIC_PRESENTATION_REPRESENTATION('',(#13),#465);
#11=SHAPE_REPRESENTATION_RELATIONSHIP('SRR','None',#472,#12);
#12=ADVANCED_BREP_SHAPE_REPRESENTATION('',(#14),#464);
#13=STYLED_ITEM('',(#481),#14);
#14=MANIFOLD_SOLID_BREP('Corps1',#211);
#15=FACE_BOUND('',#49,.T.);
#16=FACE_BOUND('',#52,.T.);
#17=FACE_BOUND('',#56,.T.);
#18=FACE_BOUND('',#58,.T.);
#19=FACE_BOUND('',#60,.T.);
#20=PLANE('',#228);
#21=PLANE('',#232);
#22=PLANE('',#233);
#23=PLANE('',#236);
#24=PLANE('',#238);
#25=PLANE('',#244);
#26=CIRCLE('',#227,4.);
#27=CIRCLE('',#229,2.);
#28=CIRCLE('',#231,2.);
#29=CIRCLE('',#234,10.);
#30=CIRCLE('',#235,10.);
#31=CIRCLE('',#237,10.);
#32=CIRCLE('',#239,10.);
#33=CIRCLE('',#240,9.);
#34=CIRCLE('',#243,9.);
#35=FACE_OUTER_BOUND('',#46,.T.);
#36=FACE_OUTER_BOUND('',#47,.T.);
#37=FACE_OUTER_BOUND('',#48,.T.);
#38=FACE_OUTER_BOUND('',#50,.T.);
#39=FACE_OUTER_BOUND('',#51,.T.);
#40=FACE_OUTER_BOUND('',#53,.T.);
#41=FACE_OUTER_BOUND('',#54,.T.);
#42=FACE_OUTER_BOUND('',#55,.T.);
#43=FACE_OUTER_BOUND('',#57,.T.);
#44=FACE_OUTER_BOUND('',#59,.T.);
#45=FACE_OUTER_BOUND('',#61,.T.);
#46=EDGE_LOOP('',(#139,#140,#141,#142,#143,#144,#145,#146));
#47=EDGE_LOOP('',(#147,#148,#149,#150,#151,#152));
#48=EDGE_LOOP('',(#153));
#49=EDGE_LOOP('',(#154));
#50=EDGE_LOOP('',(#155,#156,#157,#158));
#51=EDGE_LOOP('',(#159,#160,#161,#162));
#52=EDGE_LOOP('',(#163));
#53=EDGE_LOOP('',(#164,#165,#166));
#54=EDGE_LOOP('',(#167,#168));
#55=EDGE_LOOP('',(#169));
#56=EDGE_LOOP('',(#170));
#57=EDGE_LOOP('',(#171,#172,#173,#174,#175,#176,#177,#178));
#58=EDGE_LOOP('',(#179,#180,#181));
#59=EDGE_LOOP('',(#182,#183,#184,#185,#186,#187,#188,#189,#190));
#60=EDGE_LOOP('',(#191,#192,#193));
#61=EDGE_LOOP('',(#194));
#62=LINE('',#331,#72);
#63=LINE('',#415,#73);
#64=LINE('',#433,#74);
#65=LINE('',#437,#75);
#66=LINE('',#439,#76);
#67=LINE('',#441,#77);
#68=LINE('',#442,#78);
#69=LINE('',#455,#79);
#70=LINE('',#457,#80);
#71=LINE('',#459,#81);
#72=VECTOR('',#249,1.5);
#73=VECTOR('',#252,4.);
#74=VECTOR('',#263,2.);
#75=VECTOR('',#266,10.);
#76=VECTOR('',#267,10.);
#77=VECTOR('',#268,10.);
#78=VECTOR('',#269,10.);
#79=VECTOR('',#288,10.);
#80=VECTOR('',#291,9.);
#81=VECTOR('',#292,9.);
#82=B_SPLINE_CURVE_WITH_KNOTS('',3,(#301,#302,#303,#304,#305,#306,#307,
#308,#309,#310,#311,#312,#313,#314,#315,#316,#317,#318),.UNSPECIFIED.,.F.,
 .F.,(4,2,2,2,2,2,2,2,4),(0.226466751188939,0.28308268289157,0.339698614594201,
0.39631605848604,0.452933502377878,0.509550946269716,0.566168390161554,
0.622784321864186,0.679400253566817),.UNSPECIFIED.);
#83=B_SPLINE_CURVE_WITH_KNOTS('',3,(#320,#321,#322,#323,#324,#325,#326,
#327,#328,#329),.UNSPECIFIED.,.F.,.F.,(4,2,2,2,4),(0.905867004755756,0.962484448647594,
1.01910189253943,1.07571782424206,1.13233375594469),.UNSPECIFIED.);
#84=B_SPLINE_CURVE_WITH_KNOTS('',3,(#333,#334,#335,#336,#337,#338,#339,
#340,#341,#342),.UNSPECIFIED.,.F.,.F.,(4,2,2,2,4),(0.679400253566817,0.736016185269448,
0.79263211697208,0.849249560863918,0.905867004755756),.UNSPECIFIED.);
#85=B_SPLINE_CURVE_WITH_KNOTS('',3,(#344,#345,#346,#347,#348,#349,#350,
#351,#352,#353,#354,#355,#356,#357,#358,#359,#360,#361),.UNSPECIFIED.,.F.,
 .F.,(4,2,2,2,2,2,2,2,4),(0.226466751188939,0.28308268289157,0.339698614594202,
0.39631605848604,0.452933502377878,0.509550946269716,0.566168390161555,
0.622784321864186,0.679400253566817),.UNSPECIFIED.);
#86=B_SPLINE_CURVE_WITH_KNOTS('',3,(#362,#363,#364,#365,#366,#367,#368,
#369,#370,#371),.UNSPECIFIED.,.F.,.F.,(4,2,2,2,4),(0.,0.0566174438918383,
0.113234887783677,0.169850819486308,0.226466751188939),.UNSPECIFIED.);
#87=B_SPLINE_CURVE_WITH_KNOTS('',3,(#372,#373,#374,#375,#376,#377,#378,
#379,#380,#381),.UNSPECIFIED.,.F.,.F.,(4,2,2,2,4),(0.679400253566817,0.736016185269448,
0.792632116972079,0.849249560863918,0.905867004755756),.UNSPECIFIED.);
#88=B_SPLINE_CURVE_WITH_KNOTS('',3,(#385,#386,#387,#388,#389,#390,#391,
#392,#393,#394,#395,#396,#397,#398,#399,#400,#401,#402),.UNSPECIFIED.,.F.,
 .F.,(4,2,2,2,2,2,2,2,4),(0.610183468441548,0.762652136561262,0.915120804680976,
1.06774387078204,1.2203669368831,1.37299000298416,1.52561306908522,1.67808173720493,
1.83055040532464),.UNSPECIFIED.);
#89=B_SPLINE_CURVE_WITH_KNOTS('',3,(#404,#405,#406,#407,#408,#409,#410,
#411,#412,#413),.UNSPECIFIED.,.F.,.F.,(4,2,2,2,4),(2.44073387376619,2.59335693986725,
2.74598000596831,2.89844867408803,3.05091734220774),.UNSPECIFIED.);
#90=B_SPLINE_CURVE_WITH_KNOTS('',3,(#417,#418,#419,#420,#421,#422,#423,
#424,#425,#426),.UNSPECIFIED.,.F.,.F.,(4,2,2,2,4),(1.83055040532464,1.98301907344436,
2.13548774156407,2.28811080766513,2.44073387376619),.UNSPECIFIED.);
#91=VERTEX_POINT('',#299);
#92=VERTEX_POINT('',#300);
#93=VERTEX_POINT('',#319);
#94=VERTEX_POINT('',#330);
#95=VERTEX_POINT('',#332);
#96=VERTEX_POINT('',#343);
#97=VERTEX_POINT('',#383);
#98=VERTEX_POINT('',#384);
#99=VERTEX_POINT('',#403);
#100=VERTEX_POINT('',#414);
#101=VERTEX_POINT('',#428);
#102=VERTEX_POINT('',#431);
#103=VERTEX_POINT('',#435);
#104=VERTEX_POINT('',#436);
#105=VERTEX_POINT('',#438);
#106=VERTEX_POINT('',#440);
#107=VERTEX_POINT('',#444);
#108=VERTEX_POINT('',#450);
#109=VERTEX_POINT('',#452);
#110=VERTEX_POINT('',#458);
#111=EDGE_CURVE('',#91,#92,#82,.T.);
#112=EDGE_CURVE('',#93,#91,#83,.T.);
#113=EDGE_CURVE('',#93,#94,#62,.T.);
#114=EDGE_CURVE('',#95,#94,#84,.T.);
#115=EDGE_CURVE('',#96,#95,#85,.T.);
#116=EDGE_CURVE('',#94,#96,#86,.T.);
#117=EDGE_CURVE('',#92,#93,#87,.T.);
#118=EDGE_CURVE('',#97,#98,#88,.T.);
#119=EDGE_CURVE('',#99,#97,#89,.T.);
#120=EDGE_CURVE('',#99,#100,#63,.T.);
#121=EDGE_CURVE('',#100,#100,#26,.T.);
#122=EDGE_CURVE('',#98,#99,#90,.T.);
#123=EDGE_CURVE('',#101,#101,#27,.T.);
#124=EDGE_CURVE('',#102,#102,#28,.T.);
#125=EDGE_CURVE('',#102,#101,#64,.T.);
#126=EDGE_CURVE('',#103,#104,#65,.T.);
#127=EDGE_CURVE('',#105,#103,#66,.T.);
#128=EDGE_CURVE('',#105,#106,#67,.T.);
#129=EDGE_CURVE('',#104,#106,#68,.T.);
#130=EDGE_CURVE('',#107,#105,#29,.T.);
#131=EDGE_CURVE('',#106,#107,#30,.T.);
#132=EDGE_CURVE('',#104,#103,#31,.T.);
#133=EDGE_CURVE('',#108,#108,#32,.T.);
#134=EDGE_CURVE('',#109,#109,#33,.T.);
#135=EDGE_CURVE('',#107,#108,#69,.T.);
#136=EDGE_CURVE('',#109,#95,#70,.T.);
#137=EDGE_CURVE('',#96,#110,#71,.T.);
#138=EDGE_CURVE('',#110,#110,#34,.T.);
#139=ORIENTED_EDGE('',*,*,#111,.F.);
#140=ORIENTED_EDGE('',*,*,#112,.F.);
#141=ORIENTED_EDGE('',*,*,#113,.T.);
#142=ORIENTED_EDGE('',*,*,#114,.F.);
#143=ORIENTED_EDGE('',*,*,#115,.F.);
#144=ORIENTED_EDGE('',*,*,#116,.F.);
#145=ORIENTED_EDGE('',*,*,#113,.F.);
#146=ORIENTED_EDGE('',*,*,#117,.F.);
#147=ORIENTED_EDGE('',*,*,#118,.F.);
#148=ORIENTED_EDGE('',*,*,#119,.F.);
#149=ORIENTED_EDGE('',*,*,#120,.T.);
#150=ORIENTED_EDGE('',*,*,#121,.T.);
#151=ORIENTED_EDGE('',*,*,#120,.F.);
#152=ORIENTED_EDGE('',*,*,#122,.F.);
#153=ORIENTED_EDGE('',*,*,#121,.F.);
#154=ORIENTED_EDGE('',*,*,#123,.F.);
#155=ORIENTED_EDGE('',*,*,#124,.F.);
#156=ORIENTED_EDGE('',*,*,#125,.T.);
#157=ORIENTED_EDGE('',*,*,#123,.T.);
#158=ORIENTED_EDGE('',*,*,#125,.F.);
#159=ORIENTED_EDGE('',*,*,#126,.F.);
#160=ORIENTED_EDGE('',*,*,#127,.F.);
#161=ORIENTED_EDGE('',*,*,#128,.T.);
#162=ORIENTED_EDGE('',*,*,#129,.F.);
#163=ORIENTED_EDGE('',*,*,#124,.T.);
#164=ORIENTED_EDGE('',*,*,#128,.F.);
#165=ORIENTED_EDGE('',*,*,#130,.F.);
#166=ORIENTED_EDGE('',*,*,#131,.F.);
#167=ORIENTED_EDGE('',*,*,#126,.T.);
#168=ORIENTED_EDGE('',*,*,#132,.T.);
#169=ORIENTED_EDGE('',*,*,#133,.F.);
#170=ORIENTED_EDGE('',*,*,#134,.T.);
#171=ORIENTED_EDGE('',*,*,#127,.T.);
#172=ORIENTED_EDGE('',*,*,#132,.F.);
#173=ORIENTED_EDGE('',*,*,#129,.T.);
#174=ORIENTED_EDGE('',*,*,#131,.T.);
#175=ORIENTED_EDGE('',*,*,#135,.T.);
#176=ORIENTED_EDGE('',*,*,#133,.T.);
#177=ORIENTED_EDGE('',*,*,#135,.F.);
#178=ORIENTED_EDGE('',*,*,#130,.T.);
#179=ORIENTED_EDGE('',*,*,#122,.T.);
#180=ORIENTED_EDGE('',*,*,#119,.T.);
#181=ORIENTED_EDGE('',*,*,#118,.T.);
#182=ORIENTED_EDGE('',*,*,#134,.F.);
#183=ORIENTED_EDGE('',*,*,#136,.T.);
#184=ORIENTED_EDGE('',*,*,#114,.T.);
#185=ORIENTED_EDGE('',*,*,#116,.T.);
#186=ORIENTED_EDGE('',*,*,#137,.T.);
#187=ORIENTED_EDGE('',*,*,#138,.T.);
#188=ORIENTED_EDGE('',*,*,#137,.F.);
#189=ORIENTED_EDGE('',*,*,#115,.T.);
#190=ORIENTED_EDGE('',*,*,#136,.F.);
#191=ORIENTED_EDGE('',*,*,#111,.T.);
#192=ORIENTED_EDGE('',*,*,#117,.T.);
#193=ORIENTED_EDGE('',*,*,#112,.T.);
#194=ORIENTED_EDGE('',*,*,#138,.F.);
#195=CYLINDRICAL_SURFACE('',#225,1.5);
#196=CYLINDRICAL_SURFACE('',#226,4.);
#197=CYLINDRICAL_SURFACE('',#230,2.);
#198=CYLINDRICAL_SURFACE('',#241,10.);
#199=CYLINDRICAL_SURFACE('',#242,9.);
#200=ADVANCED_FACE('',(#35),#195,.F.);
#201=ADVANCED_FACE('',(#36),#196,.F.);
#202=ADVANCED_FACE('',(#37,#15),#20,.F.);
#203=ADVANCED_FACE('',(#38),#197,.F.);
#204=ADVANCED_FACE('',(#39,#16),#21,.F.);
#205=ADVANCED_FACE('',(#40),#22,.T.);
#206=ADVANCED_FACE('',(#41),#23,.T.);
#207=ADVANCED_FACE('',(#42,#17),#24,.F.);
#208=ADVANCED_FACE('',(#43,#18),#198,.T.);
#209=ADVANCED_FACE('',(#44,#19),#199,.T.);
#210=ADVANCED_FACE('',(#45),#25,.F.);
#211=CLOSED_SHELL('',(#200,#201,#202,#203,#204,#205,#206,#207,#208,#209,
#210));
#212=DERIVED_UNIT_ELEMENT(#214,1.);
#213=DERIVED_UNIT_ELEMENT(#467,-3.);
#214=(
MASS_UNIT()
NAMED_UNIT(*)
SI_UNIT(.KILO.,.GRAM.)
);
#215=DERIVED_UNIT((#212,#213));
#216=MEASURE_REPRESENTATION_ITEM('density measure',
POSITIVE_RATIO_MEASURE(7850.),#215);
#217=PROPERTY_DEFINITION_REPRESENTATION(#222,#219);
#218=PROPERTY_DEFINITION_REPRESENTATION(#223,#220);
#219=REPRESENTATION('material name',(#221),#464);
#220=REPRESENTATION('density',(#216),#464);
#221=DESCRIPTIVE_REPRESENTATION_ITEM('Acier','Acier');
#222=PROPERTY_DEFINITION('material property','material name',#474);
#223=PROPERTY_DEFINITION('material property','density of part',#474);
#224=AXIS2_PLACEMENT_3D('placement',#297,#245,#246);
#225=AXIS2_PLACEMENT_3D('',#298,#247,#248);
#226=AXIS2_PLACEMENT_3D('',#382,#250,#251);
#227=AXIS2_PLACEMENT_3D('',#416,#253,#254);
#228=AXIS2_PLACEMENT_3D('',#427,#255,#256);
#229=AXIS2_PLACEMENT_3D('',#429,#257,#258);
#230=AXIS2_PLACEMENT_3D('',#430,#259,#260);
#231=AXIS2_PLACEMENT_3D('',#432,#261,#262);
#232=AXIS2_PLACEMENT_3D('',#434,#264,#265);
#233=AXIS2_PLACEMENT_3D('',#443,#270,#271);
#234=AXIS2_PLACEMENT_3D('',#445,#272,#273);
#235=AXIS2_PLACEMENT_3D('',#446,#274,#275);
#236=AXIS2_PLACEMENT_3D('',#447,#276,#277);
#237=AXIS2_PLACEMENT_3D('',#448,#278,#279);
#238=AXIS2_PLACEMENT_3D('',#449,#280,#281);
#239=AXIS2_PLACEMENT_3D('',#451,#282,#283);
#240=AXIS2_PLACEMENT_3D('',#453,#284,#285);
#241=AXIS2_PLACEMENT_3D('',#454,#286,#287);
#242=AXIS2_PLACEMENT_3D('',#456,#289,#290);
#243=AXIS2_PLACEMENT_3D('',#460,#293,#294);
#244=AXIS2_PLACEMENT_3D('',#461,#295,#296);
#245=DIRECTION('axis',(0.,0.,1.));
#246=DIRECTION('refdir',(1.,0.,0.));
#247=DIRECTION('center_axis',(-1.,0.,0.));
#248=DIRECTION('ref_axis',(0.,1.,0.));
#249=DIRECTION('',(-1.,0.,0.));
#250=DIRECTION('center_axis',(1.,0.,0.));
#251=DIRECTION('ref_axis',(0.,-1.,0.));
#252=DIRECTION('',(1.,0.,0.));
#253=DIRECTION('center_axis',(1.,0.,0.));
#254=DIRECTION('ref_axis',(0.,-1.,0.));
#255=DIRECTION('center_axis',(1.,0.,0.));
#256=DIRECTION('ref_axis',(0.,-1.,0.));
#257=DIRECTION('center_axis',(-1.,0.,0.));
#258=DIRECTION('ref_axis',(0.,1.,0.));
#259=DIRECTION('center_axis',(-1.,0.,0.));
#260=DIRECTION('ref_axis',(0.,1.,0.));
#261=DIRECTION('center_axis',(-1.,0.,0.));
#262=DIRECTION('ref_axis',(0.,1.,0.));
#263=DIRECTION('',(-1.,0.,0.));
#264=DIRECTION('center_axis',(-1.,0.,0.));
#265=DIRECTION('ref_axis',(0.,1.,0.));
#266=DIRECTION('',(0.,1.,0.));
#267=DIRECTION('',(0.,0.,1.));
#268=DIRECTION('',(0.,1.,0.));
#269=DIRECTION('',(0.,0.,-1.));
#270=DIRECTION('center_axis',(0.,0.,1.));
#271=DIRECTION('ref_axis',(-1.,0.,0.));
#272=DIRECTION('center_axis',(0.,0.,-1.));
#273=DIRECTION('ref_axis',(-1.,0.,0.));
#274=DIRECTION('center_axis',(0.,0.,-1.));
#275=DIRECTION('ref_axis',(-1.,0.,0.));
#276=DIRECTION('center_axis',(0.,0.,1.));
#277=DIRECTION('ref_axis',(-1.,0.,0.));
#278=DIRECTION('center_axis',(0.,0.,1.));
#279=DIRECTION('ref_axis',(-1.,0.,0.));
#280=DIRECTION('center_axis',(0.,0.,1.));
#281=DIRECTION('ref_axis',(-1.,0.,0.));
#282=DIRECTION('center_axis',(0.,0.,1.));
#283=DIRECTION('ref_axis',(-1.,0.,0.));
#284=DIRECTION('center_axis',(0.,0.,1.));
#285=DIRECTION('ref_axis',(1.,0.,0.));
#286=DIRECTION('center_axis',(0.,0.,1.));
#287=DIRECTION('ref_axis',(-1.,0.,0.));
#288=DIRECTION('',(0.,0.,-1.));
#289=DIRECTION('center_axis',(0.,0.,1.));
#290=DIRECTION('ref_axis',(1.,0.,0.));
#291=DIRECTION('',(0.,0.,-1.));
#292=DIRECTION('',(0.,0.,-1.));
#293=DIRECTION('center_axis',(0.,0.,1.));
#294=DIRECTION('ref_axis',(1.,0.,0.));
#295=DIRECTION('center_axis',(0.,0.,1.));
#296=DIRECTION('ref_axis',(1.,0.,0.));
#297=CARTESIAN_POINT('',(0.,0.,0.));
#298=CARTESIAN_POINT('Origin',(-11.,0.,9.11473858356476));
#299=CARTESIAN_POINT('',(9.,0.,10.6147385835648));
#300=CARTESIAN_POINT('',(9.,0.,7.61473858356476));
#301=CARTESIAN_POINT('Ctrl Pts',(9.,-3.46944695195361E-16,10.6147385835648));
#302=CARTESIAN_POINT('Ctrl Pts',(9.,0.188719772342104,10.6147385835648));
#303=CARTESIAN_POINT('Ctrl Pts',(8.99346082551818,0.389780010097439,10.5769508970646));
#304=CARTESIAN_POINT('Ctrl Pts',(8.96982776942594,0.7592469063631,10.4237601370002));
#305=CARTESIAN_POINT('Ctrl Pts',(8.95306300603488,0.927682550612656,10.3083763765117));
#306=CARTESIAN_POINT('Ctrl Pts',(8.92149950416588,1.1936413447268,10.0424175823976));
#307=CARTESIAN_POINT('Ctrl Pts',(8.90463192176845,1.30902231930516,9.87398346299121));
#308=CARTESIAN_POINT('Ctrl Pts',(8.88076280470899,1.46221105653826,9.50452180501815));
#309=CARTESIAN_POINT('Ctrl Pts',(8.87411967464942,1.5,9.30346339653756));
#310=CARTESIAN_POINT('Ctrl Pts',(8.87411967464942,1.5,8.92601377059196));
#311=CARTESIAN_POINT('Ctrl Pts',(8.88076280470899,1.46221105653826,8.72495536211137));
#312=CARTESIAN_POINT('Ctrl Pts',(8.90463192176845,1.30902231930516,8.35549370413831));
#313=CARTESIAN_POINT('Ctrl Pts',(8.92149950416588,1.1936413447268,8.18705958473192));
#314=CARTESIAN_POINT('Ctrl Pts',(8.95306300603488,0.927682550612657,7.92110079061777));
#315=CARTESIAN_POINT('Ctrl Pts',(8.96982776942594,0.759246906363101,7.80571703012932));
#316=CARTESIAN_POINT('Ctrl Pts',(8.99346082551818,0.389780010097441,7.6525262700649));
#317=CARTESIAN_POINT('Ctrl Pts',(9.,0.188719772342105,7.61473858356476));
#318=CARTESIAN_POINT('Ctrl Pts',(9.,6.59194920871187E-16,7.61473858356476));
#319=CARTESIAN_POINT('',(8.87411967464942,-1.5,9.11473858356476));
#320=CARTESIAN_POINT('Ctrl Pts',(8.87411967464942,-1.5,9.11473858356476));
#321=CARTESIAN_POINT('Ctrl Pts',(8.87411967464942,-1.5,9.30346339653755));
#322=CARTESIAN_POINT('Ctrl Pts',(8.88076280470899,-1.46221105653826,9.50452180501815));
#323=CARTESIAN_POINT('Ctrl Pts',(8.90463192176846,-1.30902231930516,9.87398346299121));
#324=CARTESIAN_POINT('Ctrl Pts',(8.92149950416588,-1.1936413447268,10.0424175823976));
#325=CARTESIAN_POINT('Ctrl Pts',(8.95306300603488,-0.927682550612657,10.3083763765117));
#326=CARTESIAN_POINT('Ctrl Pts',(8.96982776942594,-0.759246906363102,10.4237601370002));
#327=CARTESIAN_POINT('Ctrl Pts',(8.99346082551818,-0.389780010097442,10.5769508970646));
#328=CARTESIAN_POINT('Ctrl Pts',(9.,-0.188719772342105,10.6147385835648));
#329=CARTESIAN_POINT('Ctrl Pts',(9.,-2.77555756156289E-16,10.6147385835648));
#330=CARTESIAN_POINT('',(-8.87411967464942,-1.5,9.11473858356476));
#331=CARTESIAN_POINT('',(-11.,-1.5,9.11473858356476));
#332=CARTESIAN_POINT('',(-9.,-6.72521702934685E-16,10.6147385835648));
#333=CARTESIAN_POINT('Ctrl Pts',(-9.,-2.42861286636753E-16,10.6147385835648));
#334=CARTESIAN_POINT('Ctrl Pts',(-9.,-0.188719772342105,10.6147385835648));
#335=CARTESIAN_POINT('Ctrl Pts',(-8.99346082551818,-0.389780010097443,10.5769508970646));
#336=CARTESIAN_POINT('Ctrl Pts',(-8.96982776942594,-0.759246906363102,10.4237601370002));
#337=CARTESIAN_POINT('Ctrl Pts',(-8.95306300603488,-0.927682550612657,10.3083763765117));
#338=CARTESIAN_POINT('Ctrl Pts',(-8.92149950416588,-1.1936413447268,10.0424175823976));
#339=CARTESIAN_POINT('Ctrl Pts',(-8.90463192176845,-1.30902231930516,9.87398346299121));
#340=CARTESIAN_POINT('Ctrl Pts',(-8.88076280470899,-1.46221105653826,9.50452180501815));
#341=CARTESIAN_POINT('Ctrl Pts',(-8.87411967464942,-1.5,9.30346339653755));
#342=CARTESIAN_POINT('Ctrl Pts',(-8.87411967464942,-1.5,9.11473858356476));
#343=CARTESIAN_POINT('',(-9.,-3.42924242499092E-16,7.61473858356476));
#344=CARTESIAN_POINT('Ctrl Pts',(-9.,3.46944695195361E-16,7.61473858356476));
#345=CARTESIAN_POINT('Ctrl Pts',(-9.,0.188719772342105,7.61473858356476));
#346=CARTESIAN_POINT('Ctrl Pts',(-8.99346082551818,0.389780010097441,7.6525262700649));
#347=CARTESIAN_POINT('Ctrl Pts',(-8.96982776942594,0.759246906363101,7.80571703012932));
#348=CARTESIAN_POINT('Ctrl Pts',(-8.95306300603488,0.927682550612657,7.92110079061777));
#349=CARTESIAN_POINT('Ctrl Pts',(-8.92149950416588,1.1936413447268,8.18705958473192));
#350=CARTESIAN_POINT('Ctrl Pts',(-8.90463192176845,1.30902231930516,8.35549370413831));
#351=CARTESIAN_POINT('Ctrl Pts',(-8.88076280470899,1.46221105653826,8.72495536211137));
#352=CARTESIAN_POINT('Ctrl Pts',(-8.87411967464942,1.5,8.92601377059196));
#353=CARTESIAN_POINT('Ctrl Pts',(-8.87411967464942,1.5,9.30346339653756));
#354=CARTESIAN_POINT('Ctrl Pts',(-8.88076280470899,1.46221105653826,9.50452180501815));
#355=CARTESIAN_POINT('Ctrl Pts',(-8.90463192176845,1.30902231930516,9.87398346299121));
#356=CARTESIAN_POINT('Ctrl Pts',(-8.92149950416588,1.1936413447268,10.0424175823976));
#357=CARTESIAN_POINT('Ctrl Pts',(-8.95306300603488,0.927682550612656,10.3083763765117));
#358=CARTESIAN_POINT('Ctrl Pts',(-8.96982776942594,0.7592469063631,10.4237601370002));
#359=CARTESIAN_POINT('Ctrl Pts',(-8.99346082551818,0.38978001009744,10.5769508970646));
#360=CARTESIAN_POINT('Ctrl Pts',(-9.,0.188719772342104,10.6147385835648));
#361=CARTESIAN_POINT('Ctrl Pts',(-9.,-2.42861286636753E-16,10.6147385835648));
#362=CARTESIAN_POINT('Ctrl Pts',(-8.87411967464942,-1.5,9.11473858356476));
#363=CARTESIAN_POINT('Ctrl Pts',(-8.87411967464942,-1.5,8.92601377059196));
#364=CARTESIAN_POINT('Ctrl Pts',(-8.88076280470899,-1.46221105653826,8.72495536211137));
#365=CARTESIAN_POINT('Ctrl Pts',(-8.90463192176846,-1.30902231930516,8.35549370413831));
#366=CARTESIAN_POINT('Ctrl Pts',(-8.92149950416588,-1.1936413447268,8.18705958473192));
#367=CARTESIAN_POINT('Ctrl Pts',(-8.95306300603488,-0.927682550612655,7.92110079061777));
#368=CARTESIAN_POINT('Ctrl Pts',(-8.96982776942594,-0.759246906363098,7.80571703012932));
#369=CARTESIAN_POINT('Ctrl Pts',(-8.99346082551818,-0.389780010097439,7.6525262700649));
#370=CARTESIAN_POINT('Ctrl Pts',(-9.,-0.188719772342104,7.61473858356476));
#371=CARTESIAN_POINT('Ctrl Pts',(-9.,3.46944695195361E-16,7.61473858356476));
#372=CARTESIAN_POINT('Ctrl Pts',(9.,7.28583859910259E-16,7.61473858356476));
#373=CARTESIAN_POINT('Ctrl Pts',(9.,-0.188719772342103,7.61473858356476));
#374=CARTESIAN_POINT('Ctrl Pts',(8.99346082551818,-0.38978001009744,7.6525262700649));
#375=CARTESIAN_POINT('Ctrl Pts',(8.96982776942594,-0.759246906363099,7.80571703012932));
#376=CARTESIAN_POINT('Ctrl Pts',(8.95306300603488,-0.927682550612655,7.92110079061777));
#377=CARTESIAN_POINT('Ctrl Pts',(8.92149950416588,-1.1936413447268,8.18705958473192));
#378=CARTESIAN_POINT('Ctrl Pts',(8.90463192176846,-1.30902231930516,8.35549370413831));
#379=CARTESIAN_POINT('Ctrl Pts',(8.88076280470899,-1.46221105653826,8.72495536211137));
#380=CARTESIAN_POINT('Ctrl Pts',(8.87411967464942,-1.5,8.92601377059196));
#381=CARTESIAN_POINT('Ctrl Pts',(8.87411967464942,-1.5,9.11473858356476));
#382=CARTESIAN_POINT('Origin',(-9.5,0.,31.0121332168579));
#383=CARTESIAN_POINT('',(-10.,0.,35.0121332168579));
#384=CARTESIAN_POINT('',(-10.,0.,27.0121332168579));
#385=CARTESIAN_POINT('Ctrl Pts',(-10.,8.32667268468867E-16,35.0121332168579));
#386=CARTESIAN_POINT('Ctrl Pts',(-10.,-0.508228893732378,35.0121332168579));
#387=CARTESIAN_POINT('Ctrl Pts',(-9.95754017708149,-1.04657661538819,34.9094103521683));
#388=CARTESIAN_POINT('Ctrl Pts',(-9.80432153118327,-2.03056846137023,34.4993789623152));
#389=CARTESIAN_POINT('Ctrl Pts',(-9.69540483514073,-2.47662160337104,34.1923658629792));
#390=CARTESIAN_POINT('Ctrl Pts',(-9.48781620359025,-3.18058890333141,33.4883985630189));
#391=CARTESIAN_POINT('Ctrl Pts',(-9.37481369735865,-3.48733182228045,33.0424802659435));
#392=CARTESIAN_POINT('Ctrl Pts',(-9.2119916675709,-3.89715640144131,32.0590144130816));
#393=CARTESIAN_POINT('Ctrl Pts',(-9.16515138991168,-4.,31.5208767705281));
#394=CARTESIAN_POINT('Ctrl Pts',(-9.16515138991168,-4.,30.5033896631877));
#395=CARTESIAN_POINT('Ctrl Pts',(-9.2119916675709,-3.89715640144131,29.9652520206342));
#396=CARTESIAN_POINT('Ctrl Pts',(-9.37481369735865,-3.48733182228045,28.9817861677723));
#397=CARTESIAN_POINT('Ctrl Pts',(-9.48781620359025,-3.18058890333141,28.5358678706969));
#398=CARTESIAN_POINT('Ctrl Pts',(-9.69540483514073,-2.47662160337104,27.8319005707366));
#399=CARTESIAN_POINT('Ctrl Pts',(-9.80432153118327,-2.03056846137023,27.5248874714006));
#400=CARTESIAN_POINT('Ctrl Pts',(-9.95754017708149,-1.04657661538819,27.1148560815475));
#401=CARTESIAN_POINT('Ctrl Pts',(-10.,-0.50822889373238,27.0121332168579));
#402=CARTESIAN_POINT('Ctrl Pts',(-10.,-1.2490009027033E-15,27.0121332168579));
#403=CARTESIAN_POINT('',(-9.16515138991168,4.,31.0121332168579));
#404=CARTESIAN_POINT('Ctrl Pts',(-9.16515138991168,4.,31.0121332168579));
#405=CARTESIAN_POINT('Ctrl Pts',(-9.16515138991168,4.,31.5208767705281));
#406=CARTESIAN_POINT('Ctrl Pts',(-9.2119916675709,3.89715640144131,32.0590144130816));
#407=CARTESIAN_POINT('Ctrl Pts',(-9.37481369735865,3.48733182228045,33.0424802659435));
#408=CARTESIAN_POINT('Ctrl Pts',(-9.48781620359025,3.18058890333141,33.4883985630189));
#409=CARTESIAN_POINT('Ctrl Pts',(-9.69540483514073,2.47662160337104,34.1923658629792));
#410=CARTESIAN_POINT('Ctrl Pts',(-9.80432153118327,2.03056846137023,34.4993789623152));
#411=CARTESIAN_POINT('Ctrl Pts',(-9.95754017708149,1.04657661538819,34.9094103521683));
#412=CARTESIAN_POINT('Ctrl Pts',(-10.,0.50822889373238,35.0121332168579));
#413=CARTESIAN_POINT('Ctrl Pts',(-10.,4.16333634234434E-16,35.0121332168579));
#414=CARTESIAN_POINT('',(-9.,4.,31.0121332168579));
#415=CARTESIAN_POINT('',(-9.5,4.,31.0121332168579));
#416=CARTESIAN_POINT('Origin',(-9.,0.,31.0121332168579));
#417=CARTESIAN_POINT('Ctrl Pts',(-10.,-1.2490009027033E-15,27.0121332168579));
#418=CARTESIAN_POINT('Ctrl Pts',(-10.,0.508228893732377,27.0121332168579));
#419=CARTESIAN_POINT('Ctrl Pts',(-9.95754017708149,1.04657661538819,27.1148560815475));
#420=CARTESIAN_POINT('Ctrl Pts',(-9.80432153118327,2.03056846137023,27.5248874714006));
#421=CARTESIAN_POINT('Ctrl Pts',(-9.69540483514073,2.47662160337103,27.8319005707366));
#422=CARTESIAN_POINT('Ctrl Pts',(-9.48781620359025,3.18058890333141,28.5358678706969));
#423=CARTESIAN_POINT('Ctrl Pts',(-9.37481369735865,3.48733182228045,28.9817861677723));
#424=CARTESIAN_POINT('Ctrl Pts',(-9.2119916675709,3.89715640144131,29.9652520206342));
#425=CARTESIAN_POINT('Ctrl Pts',(-9.16515138991168,4.,30.5033896631877));
#426=CARTESIAN_POINT('Ctrl Pts',(-9.16515138991168,4.,31.0121332168579));
#427=CARTESIAN_POINT('Origin',(-9.,0.,31.0121332168579));
#428=CARTESIAN_POINT('',(-9.,-2.,31.));
#429=CARTESIAN_POINT('Origin',(-9.,0.,31.));
#430=CARTESIAN_POINT('Origin',(-11.,0.,31.));
#431=CARTESIAN_POINT('',(0.,-2.,31.));
#432=CARTESIAN_POINT('Origin',(0.,0.,31.));
#433=CARTESIAN_POINT('',(-11.,-2.,31.));
#434=CARTESIAN_POINT('Origin',(0.,-10.,40.));
#435=CARTESIAN_POINT('',(0.,-10.,40.));
#436=CARTESIAN_POINT('',(0.,10.,40.));
#437=CARTESIAN_POINT('',(0.,-5.,40.));
#438=CARTESIAN_POINT('',(0.,-10.,22.));
#439=CARTESIAN_POINT('',(0.,-10.,20.));
#440=CARTESIAN_POINT('',(0.,10.,22.));
#441=CARTESIAN_POINT('',(0.,10.,22.));
#442=CARTESIAN_POINT('',(0.,10.,20.));
#443=CARTESIAN_POINT('Origin',(5.,0.,22.));
#444=CARTESIAN_POINT('',(10.,1.22464679914735E-15,22.));
#445=CARTESIAN_POINT('Origin',(0.,0.,22.));
#446=CARTESIAN_POINT('Origin',(0.,0.,22.));
#447=CARTESIAN_POINT('Origin',(0.,0.,40.));
#448=CARTESIAN_POINT('Origin',(0.,0.,40.));
#449=CARTESIAN_POINT('Origin',(0.,0.,20.));
#450=CARTESIAN_POINT('',(10.,1.22464679914735E-15,20.));
#451=CARTESIAN_POINT('Origin',(0.,0.,20.));
#452=CARTESIAN_POINT('',(-9.,-1.10218211923262E-15,20.));
#453=CARTESIAN_POINT('Origin',(0.,0.,20.));
#454=CARTESIAN_POINT('Origin',(0.,0.,20.));
#455=CARTESIAN_POINT('',(10.,1.22464679914735E-15,20.));
#456=CARTESIAN_POINT('Origin',(0.,0.,0.));
#457=CARTESIAN_POINT('',(-9.,-1.10218211923262E-15,0.));
#458=CARTESIAN_POINT('',(-9.,-1.10218211923262E-15,0.));
#459=CARTESIAN_POINT('',(-9.,-1.10218211923262E-15,0.));
#460=CARTESIAN_POINT('Origin',(0.,0.,0.));
#461=CARTESIAN_POINT('Origin',(0.,0.,0.));
#462=UNCERTAINTY_MEASURE_WITH_UNIT(LENGTH_MEASURE(0.01),#466,
'DISTANCE_ACCURACY_VALUE',
'Maximum model space distance between geometric entities at asserted c
onnectivities');
#463=UNCERTAINTY_MEASURE_WITH_UNIT(LENGTH_MEASURE(0.01),#466,
'DISTANCE_ACCURACY_VALUE',
'Maximum model space distance between geometric entities at asserted c
onnectivities');
#464=(
GEOMETRIC_REPRESENTATION_CONTEXT(3)
GLOBAL_UNCERTAINTY_ASSIGNED_CONTEXT((#462))
GLOBAL_UNIT_ASSIGNED_CONTEXT((#466,#468,#469))
REPRESENTATION_CONTEXT('','3D')
);
#465=(
GEOMETRIC_REPRESENTATION_CONTEXT(3)
GLOBAL_UNCERTAINTY_ASSIGNED_CONTEXT((#463))
GLOBAL_UNIT_ASSIGNED_CONTEXT((#466,#468,#469))
REPRESENTATION_CONTEXT('','3D')
);
#466=(
LENGTH_UNIT()
NAMED_UNIT(*)
SI_UNIT(.MILLI.,.METRE.)
);
#467=(
LENGTH_UNIT()
NAMED_UNIT(*)
SI_UNIT($,.METRE.)
);
#468=(
NAMED_UNIT(*)
PLANE_ANGLE_UNIT()
SI_UNIT($,.RADIAN.)
);
#469=(
NAMED_UNIT(*)
SI_UNIT($,.STERADIAN.)
SOLID_ANGLE_UNIT()
);
#470=SHAPE_DEFINITION_REPRESENTATION(#471,#472);
#471=PRODUCT_DEFINITION_SHAPE('',$,#474);
#472=SHAPE_REPRESENTATION('',(#224),#464);
#473=PRODUCT_DEFINITION_CONTEXT('part definition',#478,'design');
#474=PRODUCT_DEFINITION('insert alu','insert alu v1',#475,#473);
#475=PRODUCT_DEFINITION_FORMATION('',$,#480);
#476=PRODUCT_RELATED_PRODUCT_CATEGORY('insert alu v1','insert alu v1',(#480));
#477=APPLICATION_PROTOCOL_DEFINITION('international standard',
'automotive_design',2009,#478);
#478=APPLICATION_CONTEXT(
'Core Data for Automotive Mechanical Design Process');
#479=PRODUCT_CONTEXT('part definition',#478,'mechanical');
#480=PRODUCT('insert alu','insert alu v1',$,(#479));
#481=PRESENTATION_STYLE_ASSIGNMENT((#482));
#482=SURFACE_STYLE_USAGE(.BOTH.,#483);
#483=SURFACE_SIDE_STYLE('',(#484));
#484=SURFACE_STYLE_FILL_AREA(#485);
#485=FILL_AREA_STYLE('Acier - Satin\X\E9',(#486));
#486=FILL_AREA_STYLE_COLOUR('Acier - Satin\X\E9',#487);
#487=COLOUR_RGB('Acier - Satin\X\E9',0.627450980392157,0.627450980392157,
0.627450980392157);
ENDSEC;
END-ISO-10303-21;
