ISO-10303-21;
HEADER;
FILE_DESCRIPTION(('STEP AP203'),'1');
FILE_NAME('06_A_support_2.step','2022-03-21T18:59:41',(' '),(' '),'Spatial InterOp 3D',' ',' ');
FILE_SCHEMA(('CONFIG_CONTROL_DESIGN'));
ENDSEC;
DATA;
#1=DESIGN_CONTEXT('',#27,'design');
#2=APPLICATION_PROTOCOL_DEFINITION('INTERNATIONAL STANDARD','config_control_design',1994,#27);
#3=PRODUCT_CATEGORY_RELATIONSHIP('NONE','NONE',#28,#29);
#4=DATE_AND_TIME(#30,#31);
#5=DATE_TIME_ROLE('creation_date');
#6=DATE_TIME_ROLE('classification_date');
#7=PERSON_AND_ORGANIZATION_ROLE('creator');
#8=PERSON_AND_ORGANIZATION_ROLE('design_supplier');
#9=PERSON_AND_ORGANIZATION_ROLE('classification_officer');
#10=PERSON_AND_ORGANIZATION_ROLE('design_owner');
#11=APPROVAL_PERSON_ORGANIZATION(#32,#33,#34);
#12=APPROVAL_DATE_TIME(#4,#33);
#13=CC_DESIGN_APPROVAL(#33,(#35,#36,#37));
#14=CC_DESIGN_DATE_AND_TIME_ASSIGNMENT(#4,#5,(#37));
#15=CC_DESIGN_DATE_AND_TIME_ASSIGNMENT(#4,#6,(#35));
#16=CC_DESIGN_PERSON_AND_ORGANIZATION_ASSIGNMENT(#32,#10,(#38));
#17=CC_DESIGN_PERSON_AND_ORGANIZATION_ASSIGNMENT(#32,#7,(#37));
#18=CC_DESIGN_PERSON_AND_ORGANIZATION_ASSIGNMENT(#32,#7,(#36));
#19=CC_DESIGN_PERSON_AND_ORGANIZATION_ASSIGNMENT(#32,#8,(#36));
#20=CC_DESIGN_SECURITY_CLASSIFICATION(#35,(#36));
#21=CC_DESIGN_PERSON_AND_ORGANIZATION_ASSIGNMENT(#32,#9,(#35));
#22=SHAPE_DEFINITION_REPRESENTATION(#39,#40);
#23= (GEOMETRIC_REPRESENTATION_CONTEXT(3)GLOBAL_UNCERTAINTY_ASSIGNED_CONTEXT((#43))GLOBAL_UNIT_ASSIGNED_CONTEXT((#45,#46,#47))REPRESENTATION_CONTEXT('NONE','WORKSPACE'));
#27=APPLICATION_CONTEXT('CONFIGURATION CONTROLLED 3D DESIGNS OF MECHANICAL PARTS AND ASSEMBLIES');
#28=PRODUCT_CATEGORY('part','NONE');
#29=PRODUCT_RELATED_PRODUCT_CATEGORY('detail',' ',(#38));
#30=CALENDAR_DATE(2022,21,2);
#31=LOCAL_TIME(19,59,41.0,#49);
#32=PERSON_AND_ORGANIZATION(#50,#51);
#33=APPROVAL(#52,'SOLID MODEL');
#34=APPROVAL_ROLE('APPROVED');
#35=SECURITY_CLASSIFICATION('','',#53);
#36=PRODUCT_DEFINITION_FORMATION_WITH_SPECIFIED_SOURCE(' ','NONE',#38,.NOT_KNOWN.);
#37=PRODUCT_DEFINITION('','NONE',#36,#1);
#38=PRODUCT('1','','PART--DESC',(#54));
#39=PRODUCT_DEFINITION_SHAPE('NONE','NONE',#37);
#40=ADVANCED_BREP_SHAPE_REPRESENTATION('1',(#55,#56),#23);
#43=UNCERTAINTY_MEASURE_WITH_UNIT(LENGTH_MEASURE(0.001),#45,'','');
#45= (CONVERSION_BASED_UNIT('MILLIMETRE',#59)LENGTH_UNIT()NAMED_UNIT(#62));
#46= (NAMED_UNIT(#64)PLANE_ANGLE_UNIT()SI_UNIT($,.RADIAN.));
#47= (NAMED_UNIT(#64)SOLID_ANGLE_UNIT()SI_UNIT($,.STERADIAN.));
#49=COORDINATED_UNIVERSAL_TIME_OFFSET(1,0,.AHEAD.);
#50=PERSON('','UNSPECIFIED',$,$,$,$);
#51=ORGANIZATION('UNSPECIFIED','UNSPECIFIED','UNSPECIFIED');
#52=APPROVAL_STATUS('approved');
#53=SECURITY_CLASSIFICATION_LEVEL('unclassified');
#54=MECHANICAL_CONTEXT('',#27,'mechanical');
#55=MANIFOLD_SOLID_BREP('1',#70);
#56=AXIS2_PLACEMENT_3D('',#71,#72,#73);
#59=LENGTH_MEASURE_WITH_UNIT(LENGTH_MEASURE(1.0),#74);
#62=DIMENSIONAL_EXPONENTS(1.0,0.0,0.0,0.0,0.0,0.0,0.0);
#64=DIMENSIONAL_EXPONENTS(0.0,0.0,0.0,0.0,0.0,0.0,0.0);
#70=CLOSED_SHELL('',(#75,#76,#77,#78));
#71=CARTESIAN_POINT('',(0.0,0.0,0.0));
#72=DIRECTION('',(0.0,0.0,1.0));
#73=DIRECTION('',(1.0,0.0,0.0));
#74= (NAMED_UNIT(#62)LENGTH_UNIT()SI_UNIT(.MILLI.,.METRE.));
#75=ADVANCED_FACE('',(#80,#81),#82,.F.);
#76=ADVANCED_FACE('',(#83,#84),#85,.T.);
#77=ADVANCED_FACE('',(#86,#87),#88,.F.);
#78=ADVANCED_FACE('',(#89,#90),#91,.T.);
#80=FACE_OUTER_BOUND('',#92,.T.);
#81=FACE_OUTER_BOUND('',#93,.T.);
#82=CYLINDRICAL_SURFACE('',#94,18.25);
#83=FACE_OUTER_BOUND('',#95,.T.);
#84=FACE_OUTER_BOUND('',#96,.T.);
#85=CYLINDRICAL_SURFACE('',#97,23.25);
#86=FACE_BOUND('',#98,.T.);
#87=FACE_OUTER_BOUND('',#99,.T.);
#88=PLANE('',#100);
#89=FACE_BOUND('',#101,.T.);
#90=FACE_OUTER_BOUND('',#102,.T.);
#91=PLANE('',#103);
#92=EDGE_LOOP('',(#104));
#93=EDGE_LOOP('',(#105));
#94=AXIS2_PLACEMENT_3D('',#106,#107,#108);
#95=EDGE_LOOP('',(#109));
#96=EDGE_LOOP('',(#110));
#97=AXIS2_PLACEMENT_3D('',#111,#112,#113);
#98=EDGE_LOOP('',(#114));
#99=EDGE_LOOP('',(#115));
#100=AXIS2_PLACEMENT_3D('',#116,#117,#118);
#101=EDGE_LOOP('',(#119));
#102=EDGE_LOOP('',(#120));
#103=AXIS2_PLACEMENT_3D('',#121,#122,#123);
#104=ORIENTED_EDGE('',*,*,#124,.F.);
#105=ORIENTED_EDGE('',*,*,#125,.T.);
#106=CARTESIAN_POINT('',(0.0,0.0,-78.4051485449891));
#107=DIRECTION('',(0.0,0.0,1.0));
#108=DIRECTION('',(-1.0,0.0,0.0));
#109=ORIENTED_EDGE('',*,*,#126,.F.);
#110=ORIENTED_EDGE('',*,*,#127,.T.);
#111=CARTESIAN_POINT('',(-2.77555756156289E-14,1.04083408558608E-13,3.0));
#112=DIRECTION('',(0.0,0.0,-1.0));
#113=DIRECTION('',(0.0,1.0,0.0));
#114=ORIENTED_EDGE('',*,*,#125,.F.);
#115=ORIENTED_EDGE('',*,*,#127,.F.);
#116=CARTESIAN_POINT('',(-2.77555756156289E-14,1.04083408558608E-13,3.0));
#117=DIRECTION('',(0.0,0.0,-1.0));
#118=DIRECTION('',(0.0,1.0,0.0));
#119=ORIENTED_EDGE('',*,*,#124,.T.);
#120=ORIENTED_EDGE('',*,*,#126,.T.);
#121=CARTESIAN_POINT('',(-2.77555756156289E-14,1.04083408558608E-13,0.0));
#122=DIRECTION('',(0.0,0.0,-1.0));
#123=DIRECTION('',(0.0,1.0,0.0));
#124=EDGE_CURVE('',#128,#128,#129,.F.);
#125=EDGE_CURVE('',#130,#130,#131,.F.);
#126=EDGE_CURVE('',#132,#132,#133,.T.);
#127=EDGE_CURVE('',#134,#134,#135,.T.);
#128=VERTEX_POINT('',#136);
#129=CIRCLE('',#137,18.25);
#130=VERTEX_POINT('',#138);
#131=CIRCLE('',#139,18.25);
#132=VERTEX_POINT('',#140);
#133=CIRCLE('',#141,23.25);
#134=VERTEX_POINT('',#142);
#135=CIRCLE('',#143,23.25);
#136=CARTESIAN_POINT('',(-18.25,-4.46996081688784E-15,0.0));
#137=AXIS2_PLACEMENT_3D('',#144,#145,#146);
#138=CARTESIAN_POINT('',(-18.25,-4.46996081688784E-15,3.0));
#139=AXIS2_PLACEMENT_3D('',#147,#148,#149);
#140=CARTESIAN_POINT('',(23.25,1.04083408558608E-13,0.0));
#141=AXIS2_PLACEMENT_3D('',#150,#151,#152);
#142=CARTESIAN_POINT('',(23.25,1.04083408558608E-13,3.0));
#143=AXIS2_PLACEMENT_3D('',#153,#154,#155);
#144=CARTESIAN_POINT('',(0.0,0.0,0.0));
#145=DIRECTION('',(0.0,0.0,-1.0));
#146=DIRECTION('',(-1.0,0.0,0.0));
#147=CARTESIAN_POINT('',(0.0,0.0,3.0));
#148=DIRECTION('',(0.0,0.0,-1.0));
#149=DIRECTION('',(-1.0,0.0,0.0));
#150=CARTESIAN_POINT('',(-2.77555756156289E-14,1.04083408558608E-13,0.0));
#151=DIRECTION('',(0.0,0.0,-1.0));
#152=DIRECTION('',(1.0,0.0,0.0));
#153=CARTESIAN_POINT('',(-2.77555756156289E-14,1.04083408558608E-13,3.0));
#154=DIRECTION('',(0.0,0.0,-1.0));
#155=DIRECTION('',(1.0,0.0,0.0));
ENDSEC;
END-ISO-10303-21;
