ISO-10303-21;
HEADER;
FILE_DESCRIPTION (( 'STEP AP214' ),
    '1' );
FILE_NAME ('EntretoiseMP_31x35x10.STEP',
    '2022-01-14T14:39:40',
    ( '' ),
    ( '' ),
    'SwSTEP 2.0',
    'SolidWorks 2021',
    '' );
FILE_SCHEMA (( 'AUTOMOTIVE_DESIGN' ));
ENDSEC;

DATA;
#1 = SURFACE_STYLE_USAGE ( .BOTH. , #186 ) ;
#2 = DIRECTION ( 'NONE',  ( 1.000000000000000000, 0.000000000000000000, 0.000000000000000000 ) ) ;
#3 = DIRECTION ( 'NONE',  ( 0.000000000000000000, 0.000000000000000000, 1.000000000000000000 ) ) ;
#4 = EDGE_CURVE ( 'NONE', #141, #158, #93, .T. ) ;
#5 = CIRCLE ( 'NONE', #16, 17.49999999999999645 ) ;
#6 = FACE_OUTER_BOUND ( 'NONE', #8, .T. ) ;
#7 = DIRECTION ( 'NONE',  ( 1.000000000000000000, 0.000000000000000000, -0.000000000000000000 ) ) ;
#8 = EDGE_LOOP ( 'NONE', ( #94, #208 ) ) ;
#9 = DIRECTION ( 'NONE',  ( -0.000000000000000000, -0.000000000000000000, -1.000000000000000000 ) ) ;
#10 = EDGE_LOOP ( 'NONE', ( #145, #91, #14, #161 ) ) ;
#11 = CIRCLE ( 'NONE', #164, 15.49999999999999289 ) ;
#12 = VECTOR ( 'NONE', #26, 1000.000000000000000 ) ;
#13 = DIRECTION ( 'NONE',  ( 0.000000000000000000, 0.000000000000000000, 1.000000000000000000 ) ) ;
#14 = ORIENTED_EDGE ( 'NONE', *, *, #144, .F. ) ;
#15 = EDGE_LOOP ( 'NONE', ( #88, #79 ) ) ;
#16 = AXIS2_PLACEMENT_3D ( 'NONE', #153, #120, #198 ) ;
#17 = FACE_OUTER_BOUND ( 'NONE', #10, .T. ) ;
#18 = AXIS2_PLACEMENT_3D ( 'NONE', #104, #124, #190 ) ;
#19 = ORIENTED_EDGE ( 'NONE', *, *, #87, .T. ) ;
#20 = DIRECTION ( 'NONE',  ( 0.000000000000000000, 0.000000000000000000, 1.000000000000000000 ) ) ;
#21 =( NAMED_UNIT ( * ) SI_UNIT ( $, .STERADIAN. ) SOLID_ANGLE_UNIT ( ) );
#22 = FACE_OUTER_BOUND ( 'NONE', #62, .T. ) ;
#23 = DIRECTION ( 'NONE',  ( 0.000000000000000000, 0.000000000000000000, 1.000000000000000000 ) ) ;
#24 = DIRECTION ( 'NONE',  ( 0.000000000000000000, 0.000000000000000000, 1.000000000000000000 ) ) ;
#25 = AXIS2_PLACEMENT_3D ( 'NONE', #152, #169, #2 ) ;
#26 = DIRECTION ( 'NONE',  ( -0.000000000000000000, -0.000000000000000000, -1.000000000000000000 ) ) ;
#27 = CARTESIAN_POINT ( 'NONE',  ( 5.933855789208294595, -80.38754199525325816, 10.00000000000000000 ) ) ;
#28 = CARTESIAN_POINT ( 'NONE',  ( 3.933855789208292375, -80.38754199525325816, 10.00000000000000000 ) ) ;
#29 = PRESENTATION_LAYER_ASSIGNMENT (  '', '', ( #214 ) ) ;
#30 = VERTEX_POINT ( 'NONE', #113 ) ;
#31 =( NAMED_UNIT ( * ) PLANE_ANGLE_UNIT ( ) SI_UNIT ( $, .RADIAN. ) );
#32 = VERTEX_POINT ( 'NONE', #150 ) ;
#33 =( LENGTH_UNIT ( ) NAMED_UNIT ( * ) SI_UNIT ( .MILLI., .METRE. ) );
#34 = CARTESIAN_POINT ( 'NONE',  ( 36.93385578920828038, -80.38754199525325816, 0.000000000000000000 ) ) ;
#35 = PRODUCT_DEFINITION_CONTEXT ( 'detailed design', #143, 'design' ) ;
#36 = EDGE_CURVE ( 'NONE', #158, #211, #5, .T. ) ;
#37 = DIRECTION ( 'NONE',  ( -0.000000000000000000, -0.000000000000000000, -1.000000000000000000 ) ) ;
#38 =( GEOMETRIC_REPRESENTATION_CONTEXT ( 3 ) GLOBAL_UNCERTAINTY_ASSIGNED_CONTEXT ( ( #82 ) ) GLOBAL_UNIT_ASSIGNED_CONTEXT ( ( #33, #213, #97 ) ) REPRESENTATION_CONTEXT ( 'NONE', 'WORKASPACE' ) );
#39 = DIRECTION ( 'NONE',  ( -1.000000000000000000, 0.000000000000000000, 0.000000000000000000 ) ) ;
#40 = STYLED_ITEM ( 'NONE', ( #117 ), #109 ) ;
#41 = EDGE_CURVE ( 'NONE', #30, #141, #64, .T. ) ;
#42 = ADVANCED_FACE ( 'NONE', ( #6, #202 ), #176, .F. ) ;
#43 = CIRCLE ( 'NONE', #65, 15.49999999999999289 ) ;
#44 = AXIS2_PLACEMENT_3D ( 'NONE', #95, #20, #147 ) ;
#45 = AXIS2_PLACEMENT_3D ( 'NONE', #156, #187, #101 ) ;
#46 = CYLINDRICAL_SURFACE ( 'NONE', #70, 17.49999999999999645 ) ;
#47 =( NAMED_UNIT ( * ) PLANE_ANGLE_UNIT ( ) SI_UNIT ( $, .RADIAN. ) );
#48 = EDGE_LOOP ( 'NONE', ( #130, #103, #60, #128 ) ) ;
#49 = ORIENTED_EDGE ( 'NONE', *, *, #41, .F. ) ;
#50 = DIRECTION ( 'NONE',  ( -0.000000000000000000, -0.000000000000000000, -1.000000000000000000 ) ) ;
#51 = SURFACE_SIDE_STYLE ('',( #180 ) ) ;
#52 = DIRECTION ( 'NONE',  ( 0.000000000000000000, 0.000000000000000000, 1.000000000000000000 ) ) ;
#53 = PRODUCT_DEFINITION_SHAPE ( 'NONE', 'NONE',  #182 ) ;
#54 = DIRECTION ( 'NONE',  ( 1.000000000000000000, 0.000000000000000000, 0.000000000000000000 ) ) ;
#55 = AXIS2_PLACEMENT_3D ( 'NONE', #63, #194, #98 ) ;
#56 = DIRECTION ( 'NONE',  ( -1.000000000000000000, 0.000000000000000000, 0.000000000000000000 ) ) ;
#57 = FACE_OUTER_BOUND ( 'NONE', #108, .T. ) ;
#58 = EDGE_LOOP ( 'NONE', ( #80, #201 ) ) ;
#59 = LINE ( 'NONE', #28, #197 ) ;
#60 = ORIENTED_EDGE ( 'NONE', *, *, #66, .T. ) ;
#61 =( GEOMETRIC_REPRESENTATION_CONTEXT ( 3 ) GLOBAL_UNCERTAINTY_ASSIGNED_CONTEXT ( ( #118 ) ) GLOBAL_UNIT_ASSIGNED_CONTEXT ( ( #116, #31, #21 ) ) REPRESENTATION_CONTEXT ( 'NONE', 'WORKASPACE' ) );
#62 = EDGE_LOOP ( 'NONE', ( #83, #157, #210, #179 ) ) ;
#63 = CARTESIAN_POINT ( 'NONE',  ( 21.43385578920829104, -80.38754199525325816, 10.00000000000000000 ) ) ;
#64 = CIRCLE ( 'NONE', #196, 17.49999999999999645 ) ;
#65 = AXIS2_PLACEMENT_3D ( 'NONE', #199, #23, #54 ) ;
#66 = EDGE_CURVE ( 'NONE', #106, #177, #140, .T. ) ;
#67 = MANIFOLD_SOLID_BREP ( 'Boss.-Extru.1', #163 ) ;
#68 = CARTESIAN_POINT ( 'NONE',  ( 21.43385578920829104, -80.38754199525325816, 10.00000000000000000 ) ) ;
#69 = DIRECTION ( 'NONE',  ( 1.000000000000000000, 0.000000000000000000, 0.000000000000000000 ) ) ;
#70 = AXIS2_PLACEMENT_3D ( 'NONE', #174, #9, #112 ) ;
#71 = FACE_OUTER_BOUND ( 'NONE', #48, .T. ) ;
#72 = CIRCLE ( 'NONE', #167, 15.49999999999999289 ) ;
#73 = AXIS2_PLACEMENT_3D ( 'NONE', #139, #200, #56 ) ;
#74 = ADVANCED_FACE ( 'NONE', ( #17 ), #206, .F. ) ;
#75 = DIRECTION ( 'NONE',  ( -0.000000000000000000, -0.000000000000000000, -1.000000000000000000 ) ) ;
#76 = VECTOR ( 'NONE', #50, 1000.000000000000000 ) ;
#77 = CIRCLE ( 'NONE', #102, 17.49999999999999645 ) ;
#78 = DIRECTION ( 'NONE',  ( 1.000000000000000000, 0.000000000000000000, 0.000000000000000000 ) ) ;
#79 = ORIENTED_EDGE ( 'NONE', *, *, #122, .T. ) ;
#80 = ORIENTED_EDGE ( 'NONE', *, *, #136, .F. ) ;
#81 = FILL_AREA_STYLE_COLOUR ( '', #133 ) ;
#82 = UNCERTAINTY_MEASURE_WITH_UNIT (LENGTH_MEASURE( 1.000000000000000082E-05 ), #33, 'distance_accuracy_value', 'NONE');
#83 = ORIENTED_EDGE ( 'NONE', *, *, #87, .F. ) ;
#84 = UNCERTAINTY_MEASURE_WITH_UNIT (LENGTH_MEASURE( 1.000000000000000082E-05 ), #138, 'distance_accuracy_value', 'NONE');
#85 = CARTESIAN_POINT ( 'NONE',  ( 38.93385578920828749, -80.38754199525325816, 10.00000000000000000 ) ) ;
#86 = CARTESIAN_POINT ( 'NONE',  ( 21.43385578920829104, -80.38754199525325816, 10.00000000000000000 ) ) ;
#87 = EDGE_CURVE ( 'NONE', #141, #30, #185, .T. ) ;
#88 = ORIENTED_EDGE ( 'NONE', *, *, #144, .T. ) ;
#89 = SHAPE_DEFINITION_REPRESENTATION ( #53, #109 ) ;
#90 = LINE ( 'NONE', #123, #12 ) ;
#91 = ORIENTED_EDGE ( 'NONE', *, *, #171, .T. ) ;
#92 = PRESENTATION_STYLE_ASSIGNMENT (( #183 ) ) ;
#93 = LINE ( 'NONE', #125, #76 ) ;
#94 = ORIENTED_EDGE ( 'NONE', *, *, #114, .F. ) ;
#95 = CARTESIAN_POINT ( 'NONE',  ( 0.000000000000000000, 0.000000000000000000, 0.000000000000000000 ) ) ;
#96 = ADVANCED_FACE ( 'NONE', ( #71 ), #134, .F. ) ;
#97 =( NAMED_UNIT ( * ) SI_UNIT ( $, .STERADIAN. ) SOLID_ANGLE_UNIT ( ) );
#98 = DIRECTION ( 'NONE',  ( 1.000000000000000000, 0.000000000000000000, 0.000000000000000000 ) ) ;
#99 = SURFACE_STYLE_FILL_AREA ( #135 ) ;
#100 = CARTESIAN_POINT ( 'NONE',  ( 5.933855789208294595, -80.38754199525325816, 10.00000000000000000 ) ) ;
#101 = DIRECTION ( 'NONE',  ( -1.000000000000000000, 0.000000000000000000, 0.000000000000000000 ) ) ;
#102 = AXIS2_PLACEMENT_3D ( 'NONE', #170, #3, #69 ) ;
#103 = ORIENTED_EDGE ( 'NONE', *, *, #209, .T. ) ;
#104 = CARTESIAN_POINT ( 'NONE',  ( 21.43385578920829104, -80.38754199525325816, 10.00000000000000000 ) ) ;
#105 = DIRECTION ( 'NONE',  ( -0.000000000000000000, -0.000000000000000000, -1.000000000000000000 ) ) ;
#106 = VERTEX_POINT ( 'NONE', #100 ) ;
#107 = APPLICATION_CONTEXT ( 'automotive_design' ) ;
#108 = EDGE_LOOP ( 'NONE', ( #204, #19 ) ) ;
#109 = ADVANCED_BREP_SHAPE_REPRESENTATION ( 'EntretoiseMP_31x35x10', ( #67, #44 ), #61 ) ;
#110 = ORIENTED_EDGE ( 'NONE', *, *, #4, .F. ) ;
#111 = APPLICATION_PROTOCOL_DEFINITION ( 'draft international standard', 'automotive_design', 1998, #143 ) ;
#112 = DIRECTION ( 'NONE',  ( -1.000000000000000000, 0.000000000000000000, 0.000000000000000000 ) ) ;
#113 = CARTESIAN_POINT ( 'NONE',  ( 3.933855789208292375, -80.38754199525325816, 10.00000000000000000 ) ) ;
#114 = EDGE_CURVE ( 'NONE', #211, #158, #77, .T. ) ;
#115 = FILL_AREA_STYLE_COLOUR ( '', #172 ) ;
#116 =( LENGTH_UNIT ( ) NAMED_UNIT ( * ) SI_UNIT ( .MILLI., .METRE. ) );
#117 = PRESENTATION_STYLE_ASSIGNMENT (( #1 ) ) ;
#118 = UNCERTAINTY_MEASURE_WITH_UNIT (LENGTH_MEASURE( 1.000000000000000082E-05 ), #116, 'distance_accuracy_value', 'NONE');
#119 = DIRECTION ( 'NONE',  ( 1.000000000000000000, 0.000000000000000000, 0.000000000000000000 ) ) ;
#120 = DIRECTION ( 'NONE',  ( 0.000000000000000000, 0.000000000000000000, 1.000000000000000000 ) ) ;
#121 = PRODUCT_DEFINITION_FORMATION_WITH_SPECIFIED_SOURCE ( 'ANY', '', #131, .NOT_KNOWN. ) ;
#122 = EDGE_CURVE ( 'NONE', #191, #177, #11, .T. ) ;
#123 = CARTESIAN_POINT ( 'NONE',  ( 36.93385578920828038, -80.38754199525325816, 10.00000000000000000 ) ) ;
#124 = DIRECTION ( 'NONE',  ( 0.000000000000000000, 0.000000000000000000, 1.000000000000000000 ) ) ;
#125 = CARTESIAN_POINT ( 'NONE',  ( 38.93385578920828749, -80.38754199525325816, 10.00000000000000000 ) ) ;
#126 = CARTESIAN_POINT ( 'NONE',  ( 38.93385578920828749, -80.38754199525325816, 0.000000000000000000 ) ) ;
#127 = VECTOR ( 'NONE', #75, 1000.000000000000000 ) ;
#128 = ORIENTED_EDGE ( 'NONE', *, *, #122, .F. ) ;
#129 = EDGE_LOOP ( 'NONE', ( #110, #49, #142, #146 ) ) ;
#130 = ORIENTED_EDGE ( 'NONE', *, *, #171, .F. ) ;
#131 = PRODUCT ( 'EntretoiseMP_31x35x10', 'EntretoiseMP_31x35x10', '', ( #181 ) ) ;
#132 = PRODUCT_RELATED_PRODUCT_CATEGORY ( 'part', '', ( #131 ) ) ;
#133 = COLOUR_RGB ( '',0.7921568627450980005, 0.8196078431372548767, 0.9333333333333333481 ) ;
#134 = CYLINDRICAL_SURFACE ( 'NONE', #45, 15.49999999999999645 ) ;
#135 = FILL_AREA_STYLE ('',( #81 ) ) ;
#136 = EDGE_CURVE ( 'NONE', #106, #32, #43, .T. ) ;
#137 = ADVANCED_FACE ( 'NONE', ( #22 ), #154, .T. ) ;
#138 =( LENGTH_UNIT ( ) NAMED_UNIT ( * ) SI_UNIT ( .MILLI., .METRE. ) );
#139 = CARTESIAN_POINT ( 'NONE',  ( 21.43385578920829104, -80.38754199525325816, 10.00000000000000000 ) ) ;
#140 = LINE ( 'NONE', #27, #127 ) ;
#141 = VERTEX_POINT ( 'NONE', #85 ) ;
#142 = ORIENTED_EDGE ( 'NONE', *, *, #155, .T. ) ;
#143 = APPLICATION_CONTEXT ( 'automotive_design' ) ;
#144 = EDGE_CURVE ( 'NONE', #177, #191, #72, .T. ) ;
#145 = ORIENTED_EDGE ( 'NONE', *, *, #136, .T. ) ;
#146 = ORIENTED_EDGE ( 'NONE', *, *, #114, .T. ) ;
#147 = DIRECTION ( 'NONE',  ( 1.000000000000000000, 0.000000000000000000, 0.000000000000000000 ) ) ;
#148 = CARTESIAN_POINT ( 'NONE',  ( 3.933855789208292375, -80.38754199525325816, 0.000000000000000000 ) ) ;
#149 = MECHANICAL_DESIGN_GEOMETRIC_PRESENTATION_REPRESENTATION (  '', ( #214 ), #38 ) ;
#150 = CARTESIAN_POINT ( 'NONE',  ( 36.93385578920828038, -80.38754199525325816, 10.00000000000000000 ) ) ;
#151 =( GEOMETRIC_REPRESENTATION_CONTEXT ( 3 ) GLOBAL_UNCERTAINTY_ASSIGNED_CONTEXT ( ( #84 ) ) GLOBAL_UNIT_ASSIGNED_CONTEXT ( ( #138, #47, #193 ) ) REPRESENTATION_CONTEXT ( 'NONE', 'WORKASPACE' ) );
#152 = CARTESIAN_POINT ( 'NONE',  ( 21.43385578920829104, -80.38754199525325816, 10.00000000000000000 ) ) ;
#153 = CARTESIAN_POINT ( 'NONE',  ( 21.43385578920829104, -80.38754199525325816, 0.000000000000000000 ) ) ;
#154 = CYLINDRICAL_SURFACE ( 'NONE', #73, 17.49999999999999645 ) ;
#155 = EDGE_CURVE ( 'NONE', #30, #211, #59, .T. ) ;
#156 = CARTESIAN_POINT ( 'NONE',  ( 21.43385578920829104, -80.38754199525325816, 10.00000000000000000 ) ) ;
#157 = ORIENTED_EDGE ( 'NONE', *, *, #4, .T. ) ;
#158 = VERTEX_POINT ( 'NONE', #126 ) ;
#159 = CARTESIAN_POINT ( 'NONE',  ( 5.933855789208294595, -80.38754199525325816, 0.000000000000000000 ) ) ;
#160 = CARTESIAN_POINT ( 'NONE',  ( 21.43385578920829104, -80.38754199525325816, 0.000000000000000000 ) ) ;
#161 = ORIENTED_EDGE ( 'NONE', *, *, #66, .F. ) ;
#162 = ADVANCED_FACE ( 'NONE', ( #57, #173 ), #192, .T. ) ;
#163 = CLOSED_SHELL ( 'NONE', ( #74, #137, #162, #42, #189, #96 ) ) ;
#164 = AXIS2_PLACEMENT_3D ( 'NONE', #184, #52, #119 ) ;
#165 = CIRCLE ( 'NONE', #55, 15.49999999999999289 ) ;
#166 = MECHANICAL_DESIGN_GEOMETRIC_PRESENTATION_REPRESENTATION (  '', ( #40 ), #151 ) ;
#167 = AXIS2_PLACEMENT_3D ( 'NONE', #205, #175, #207 ) ;
#168 = FILL_AREA_STYLE ('',( #115 ) ) ;
#169 = DIRECTION ( 'NONE',  ( 0.000000000000000000, 0.000000000000000000, 1.000000000000000000 ) ) ;
#170 = CARTESIAN_POINT ( 'NONE',  ( 21.43385578920829104, -80.38754199525325816, 0.000000000000000000 ) ) ;
#171 = EDGE_CURVE ( 'NONE', #32, #191, #90, .T. ) ;
#172 = COLOUR_RGB ( '',0.7921568627450980005, 0.8196078431372548767, 0.9333333333333333481 ) ;
#173 = FACE_BOUND ( 'NONE', #58, .T. ) ;
#174 = CARTESIAN_POINT ( 'NONE',  ( 21.43385578920829104, -80.38754199525325816, 10.00000000000000000 ) ) ;
#175 = DIRECTION ( 'NONE',  ( 0.000000000000000000, 0.000000000000000000, 1.000000000000000000 ) ) ;
#176 = PLANE ( 'NONE',  #188 ) ;
#177 = VERTEX_POINT ( 'NONE', #159 ) ;
#178 = AXIS2_PLACEMENT_3D ( 'NONE', #86, #37, #39 ) ;
#179 = ORIENTED_EDGE ( 'NONE', *, *, #155, .F. ) ;
#180 = SURFACE_STYLE_FILL_AREA ( #168 ) ;
#181 = PRODUCT_CONTEXT ( 'NONE', #107, 'mechanical' ) ;
#182 = PRODUCT_DEFINITION ( 'UNKNOWN', '', #121, #35 ) ;
#183 = SURFACE_STYLE_USAGE ( .BOTH. , #51 ) ;
#184 = CARTESIAN_POINT ( 'NONE',  ( 21.43385578920829104, -80.38754199525325816, 0.000000000000000000 ) ) ;
#185 = CIRCLE ( 'NONE', #25, 17.49999999999999645 ) ;
#186 = SURFACE_SIDE_STYLE ('',( #99 ) ) ;
#187 = DIRECTION ( 'NONE',  ( -0.000000000000000000, -0.000000000000000000, -1.000000000000000000 ) ) ;
#188 = AXIS2_PLACEMENT_3D ( 'NONE', #160, #13, #7 ) ;
#189 = ADVANCED_FACE ( 'NONE', ( #203 ), #46, .T. ) ;
#190 = DIRECTION ( 'NONE',  ( 1.000000000000000000, 0.000000000000000000, -0.000000000000000000 ) ) ;
#191 = VERTEX_POINT ( 'NONE', #34 ) ;
#192 = PLANE ( 'NONE',  #18 ) ;
#193 =( NAMED_UNIT ( * ) SI_UNIT ( $, .STERADIAN. ) SOLID_ANGLE_UNIT ( ) );
#194 = DIRECTION ( 'NONE',  ( 0.000000000000000000, 0.000000000000000000, 1.000000000000000000 ) ) ;
#195 = PRESENTATION_LAYER_ASSIGNMENT (  '', '', ( #40 ) ) ;
#196 = AXIS2_PLACEMENT_3D ( 'NONE', #68, #24, #78 ) ;
#197 = VECTOR ( 'NONE', #105, 1000.000000000000000 ) ;
#198 = DIRECTION ( 'NONE',  ( 1.000000000000000000, 0.000000000000000000, 0.000000000000000000 ) ) ;
#199 = CARTESIAN_POINT ( 'NONE',  ( 21.43385578920829104, -80.38754199525325816, 10.00000000000000000 ) ) ;
#200 = DIRECTION ( 'NONE',  ( -0.000000000000000000, -0.000000000000000000, -1.000000000000000000 ) ) ;
#201 = ORIENTED_EDGE ( 'NONE', *, *, #209, .F. ) ;
#202 = FACE_BOUND ( 'NONE', #15, .T. ) ;
#203 = FACE_OUTER_BOUND ( 'NONE', #129, .T. ) ;
#204 = ORIENTED_EDGE ( 'NONE', *, *, #41, .T. ) ;
#205 = CARTESIAN_POINT ( 'NONE',  ( 21.43385578920829104, -80.38754199525325816, 0.000000000000000000 ) ) ;
#206 = CYLINDRICAL_SURFACE ( 'NONE', #178, 15.49999999999999645 ) ;
#207 = DIRECTION ( 'NONE',  ( 1.000000000000000000, 0.000000000000000000, 0.000000000000000000 ) ) ;
#208 = ORIENTED_EDGE ( 'NONE', *, *, #36, .F. ) ;
#209 = EDGE_CURVE ( 'NONE', #32, #106, #165, .T. ) ;
#210 = ORIENTED_EDGE ( 'NONE', *, *, #36, .T. ) ;
#211 = VERTEX_POINT ( 'NONE', #148 ) ;
#212 = APPLICATION_PROTOCOL_DEFINITION ( 'draft international standard', 'automotive_design', 1998, #107 ) ;
#213 =( NAMED_UNIT ( * ) PLANE_ANGLE_UNIT ( ) SI_UNIT ( $, .RADIAN. ) );
#214 = STYLED_ITEM ( 'NONE', ( #92 ), #67 ) ;
ENDSEC;
END-ISO-10303-21;
