ISO-10303-21;
HEADER;
/* Generated by software containing ST-Developer
 * from STEP Tools, Inc. (www.steptools.com) 
 */

FILE_DESCRIPTION(
/* description */ (''),
/* implementation_level */ '2;1');

FILE_NAME(
/* name */ 
'U:\\COLLABORATEURS\\Philo\\ES230\\Rechercher Amelioration\\Syst\X\E9m
e manuel\\ES230-6M-R-7.stp',
/* time_stamp */ '2022-03-22T09:09:12+01:00',
/* author */ ('etude1'),
/* organization */ ('SECUMS INTERLOCKS'),
/* preprocessor_version */ 'ST-DEVELOPER v17.2',
/* originating_system */ 'Autodesk Inventor 2019',
/* authorisation */ '');

FILE_SCHEMA (('AUTOMOTIVE_DESIGN { 1 0 10303 214 3 1 1 }'));
ENDSEC;

DATA;
#10=MECHANICAL_DESIGN_GEOMETRIC_PRESENTATION_REPRESENTATION('',(#13),#613);
#11=SHAPE_REPRESENTATION_RELATIONSHIP('SRR','None',#620,#12);
#12=ADVANCED_BREP_SHAPE_REPRESENTATION('',(#14),#612);
#13=STYLED_ITEM('',(#629),#14);
#14=MANIFOLD_SOLID_BREP('Solide1',#330);
#15=CONICAL_SURFACE('',#354,0.8105,1.02974425867665);
#16=CONICAL_SURFACE('',#360,0.8105,1.02974425867665);
#17=CONICAL_SURFACE('',#366,0.8105,1.02974425867665);
#18=CONICAL_SURFACE('',#372,0.8105,1.02974425867665);
#19=FACE_BOUND('',#84,.T.);
#20=FACE_BOUND('',#96,.T.);
#21=FACE_BOUND('',#99,.T.);
#22=FACE_BOUND('',#102,.T.);
#23=FACE_BOUND('',#103,.T.);
#24=FACE_BOUND('',#104,.T.);
#25=FACE_BOUND('',#105,.T.);
#26=FACE_BOUND('',#106,.T.);
#27=PLANE('',#352);
#28=PLANE('',#386);
#29=PLANE('',#389);
#30=PLANE('',#394);
#31=LINE('',#525,#43);
#32=LINE('',#534,#44);
#33=LINE('',#541,#45);
#34=LINE('',#547,#46);
#35=LINE('',#554,#47);
#36=LINE('',#560,#48);
#37=LINE('',#567,#49);
#38=LINE('',#573,#50);
#39=LINE('',#580,#51);
#40=LINE('',#593,#52);
#41=LINE('',#599,#53);
#42=LINE('',#607,#54);
#43=VECTOR('',#413,11.);
#44=VECTOR('',#422,0.8105);
#45=VECTOR('',#431,1.621);
#46=VECTOR('',#436,0.8105);
#47=VECTOR('',#445,1.621);
#48=VECTOR('',#450,0.8105);
#49=VECTOR('',#459,1.621);
#50=VECTOR('',#464,0.8105);
#51=VECTOR('',#473,1.621);
#52=VECTOR('',#488,7.6);
#53=VECTOR('',#497,17.9);
#54=VECTOR('',#506,18.5);
#55=CYLINDRICAL_SURFACE('',#350,11.);
#56=CYLINDRICAL_SURFACE('',#357,1.621);
#57=CYLINDRICAL_SURFACE('',#363,1.621);
#58=CYLINDRICAL_SURFACE('',#369,1.621);
#59=CYLINDRICAL_SURFACE('',#375,1.621);
#60=CYLINDRICAL_SURFACE('',#384,7.6);
#61=CYLINDRICAL_SURFACE('',#387,17.9);
#62=CYLINDRICAL_SURFACE('',#392,18.5);
#63=FACE_OUTER_BOUND('',#81,.T.);
#64=FACE_OUTER_BOUND('',#82,.T.);
#65=FACE_OUTER_BOUND('',#83,.T.);
#66=FACE_OUTER_BOUND('',#85,.T.);
#67=FACE_OUTER_BOUND('',#86,.T.);
#68=FACE_OUTER_BOUND('',#87,.T.);
#69=FACE_OUTER_BOUND('',#88,.T.);
#70=FACE_OUTER_BOUND('',#89,.T.);
#71=FACE_OUTER_BOUND('',#90,.T.);
#72=FACE_OUTER_BOUND('',#91,.T.);
#73=FACE_OUTER_BOUND('',#92,.T.);
#74=FACE_OUTER_BOUND('',#93,.T.);
#75=FACE_OUTER_BOUND('',#94,.T.);
#76=FACE_OUTER_BOUND('',#95,.T.);
#77=FACE_OUTER_BOUND('',#97,.T.);
#78=FACE_OUTER_BOUND('',#98,.T.);
#79=FACE_OUTER_BOUND('',#100,.T.);
#80=FACE_OUTER_BOUND('',#101,.T.);
#81=EDGE_LOOP('',(#220,#221,#222,#223,#224,#225));
#82=EDGE_LOOP('',(#226,#227,#228,#229,#230));
#83=EDGE_LOOP('',(#231));
#84=EDGE_LOOP('',(#232,#233));
#85=EDGE_LOOP('',(#234,#235,#236,#237));
#86=EDGE_LOOP('',(#238,#239,#240,#241,#242,#243));
#87=EDGE_LOOP('',(#244,#245,#246,#247));
#88=EDGE_LOOP('',(#248,#249,#250,#251,#252,#253));
#89=EDGE_LOOP('',(#254,#255,#256,#257));
#90=EDGE_LOOP('',(#258,#259,#260,#261,#262,#263));
#91=EDGE_LOOP('',(#264,#265,#266,#267));
#92=EDGE_LOOP('',(#268,#269,#270,#271,#272,#273));
#93=EDGE_LOOP('',(#274,#275,#276,#277,#278,#279));
#94=EDGE_LOOP('',(#280,#281,#282,#283,#284));
#95=EDGE_LOOP('',(#285));
#96=EDGE_LOOP('',(#286,#287));
#97=EDGE_LOOP('',(#288,#289,#290,#291));
#98=EDGE_LOOP('',(#292,#293));
#99=EDGE_LOOP('',(#294));
#100=EDGE_LOOP('',(#295,#296,#297,#298,#299));
#101=EDGE_LOOP('',(#300));
#102=EDGE_LOOP('',(#301,#302));
#103=EDGE_LOOP('',(#303,#304));
#104=EDGE_LOOP('',(#305,#306));
#105=EDGE_LOOP('',(#307,#308));
#106=EDGE_LOOP('',(#309));
#107=CIRCLE('',#345,11.);
#108=CIRCLE('',#346,4.);
#109=CIRCLE('',#347,15.);
#110=CIRCLE('',#348,15.);
#111=CIRCLE('',#349,11.);
#112=CIRCLE('',#351,11.);
#113=CIRCLE('',#353,17.9);
#114=CIRCLE('',#355,1.621);
#115=CIRCLE('',#356,1.621);
#116=CIRCLE('',#358,1.621);
#117=CIRCLE('',#359,1.621);
#118=CIRCLE('',#361,1.621);
#119=CIRCLE('',#362,1.621);
#120=CIRCLE('',#364,1.621);
#121=CIRCLE('',#365,1.621);
#122=CIRCLE('',#367,1.621);
#123=CIRCLE('',#368,1.621);
#124=CIRCLE('',#370,1.621);
#125=CIRCLE('',#371,1.621);
#126=CIRCLE('',#373,1.621);
#127=CIRCLE('',#374,1.621);
#128=CIRCLE('',#376,1.621);
#129=CIRCLE('',#377,1.621);
#130=CIRCLE('',#379,9.6);
#131=CIRCLE('',#380,2.);
#132=CIRCLE('',#381,7.6);
#133=CIRCLE('',#382,7.6);
#134=CIRCLE('',#383,9.6);
#135=CIRCLE('',#385,7.6);
#136=CIRCLE('',#388,17.9);
#137=CIRCLE('',#390,18.5);
#138=CIRCLE('',#391,18.5);
#139=CIRCLE('',#393,18.5);
#140=VERTEX_POINT('',#513);
#141=VERTEX_POINT('',#514);
#142=VERTEX_POINT('',#516);
#143=VERTEX_POINT('',#518);
#144=VERTEX_POINT('',#523);
#145=VERTEX_POINT('',#527);
#146=VERTEX_POINT('',#530);
#147=VERTEX_POINT('',#531);
#148=VERTEX_POINT('',#533);
#149=VERTEX_POINT('',#537);
#150=VERTEX_POINT('',#538);
#151=VERTEX_POINT('',#543);
#152=VERTEX_POINT('',#544);
#153=VERTEX_POINT('',#546);
#154=VERTEX_POINT('',#550);
#155=VERTEX_POINT('',#551);
#156=VERTEX_POINT('',#556);
#157=VERTEX_POINT('',#557);
#158=VERTEX_POINT('',#559);
#159=VERTEX_POINT('',#563);
#160=VERTEX_POINT('',#564);
#161=VERTEX_POINT('',#569);
#162=VERTEX_POINT('',#570);
#163=VERTEX_POINT('',#572);
#164=VERTEX_POINT('',#576);
#165=VERTEX_POINT('',#577);
#166=VERTEX_POINT('',#582);
#167=VERTEX_POINT('',#583);
#168=VERTEX_POINT('',#585);
#169=VERTEX_POINT('',#587);
#170=VERTEX_POINT('',#592);
#171=VERTEX_POINT('',#597);
#172=VERTEX_POINT('',#601);
#173=VERTEX_POINT('',#602);
#174=VERTEX_POINT('',#606);
#175=EDGE_CURVE('',#140,#141,#107,.T.);
#176=EDGE_CURVE('',#141,#142,#108,.T.);
#177=EDGE_CURVE('',#142,#143,#109,.T.);
#178=EDGE_CURVE('',#143,#142,#110,.T.);
#179=EDGE_CURVE('',#141,#140,#111,.T.);
#180=EDGE_CURVE('',#144,#144,#112,.T.);
#181=EDGE_CURVE('',#144,#140,#31,.T.);
#182=EDGE_CURVE('',#145,#145,#113,.T.);
#183=EDGE_CURVE('',#146,#147,#114,.T.);
#184=EDGE_CURVE('',#147,#148,#32,.T.);
#185=EDGE_CURVE('',#147,#146,#115,.T.);
#186=EDGE_CURVE('',#149,#150,#116,.T.);
#187=EDGE_CURVE('',#150,#149,#117,.T.);
#188=EDGE_CURVE('',#150,#147,#33,.T.);
#189=EDGE_CURVE('',#151,#152,#118,.T.);
#190=EDGE_CURVE('',#152,#153,#34,.T.);
#191=EDGE_CURVE('',#152,#151,#119,.T.);
#192=EDGE_CURVE('',#154,#155,#120,.T.);
#193=EDGE_CURVE('',#155,#154,#121,.T.);
#194=EDGE_CURVE('',#155,#152,#35,.T.);
#195=EDGE_CURVE('',#156,#157,#122,.T.);
#196=EDGE_CURVE('',#157,#158,#36,.T.);
#197=EDGE_CURVE('',#157,#156,#123,.T.);
#198=EDGE_CURVE('',#159,#160,#124,.T.);
#199=EDGE_CURVE('',#160,#159,#125,.T.);
#200=EDGE_CURVE('',#160,#157,#37,.T.);
#201=EDGE_CURVE('',#161,#162,#126,.T.);
#202=EDGE_CURVE('',#162,#163,#38,.T.);
#203=EDGE_CURVE('',#162,#161,#127,.T.);
#204=EDGE_CURVE('',#164,#165,#128,.T.);
#205=EDGE_CURVE('',#165,#164,#129,.T.);
#206=EDGE_CURVE('',#165,#162,#39,.T.);
#207=EDGE_CURVE('',#166,#167,#130,.T.);
#208=EDGE_CURVE('',#167,#168,#131,.T.);
#209=EDGE_CURVE('',#168,#169,#132,.T.);
#210=EDGE_CURVE('',#169,#168,#133,.T.);
#211=EDGE_CURVE('',#167,#166,#134,.T.);
#212=EDGE_CURVE('',#169,#170,#40,.T.);
#213=EDGE_CURVE('',#170,#170,#135,.T.);
#214=EDGE_CURVE('',#171,#171,#136,.T.);
#215=EDGE_CURVE('',#171,#145,#41,.T.);
#216=EDGE_CURVE('',#172,#173,#137,.T.);
#217=EDGE_CURVE('',#173,#172,#138,.T.);
#218=EDGE_CURVE('',#173,#174,#42,.T.);
#219=EDGE_CURVE('',#174,#174,#139,.T.);
#220=ORIENTED_EDGE('',*,*,#175,.T.);
#221=ORIENTED_EDGE('',*,*,#176,.T.);
#222=ORIENTED_EDGE('',*,*,#177,.T.);
#223=ORIENTED_EDGE('',*,*,#178,.T.);
#224=ORIENTED_EDGE('',*,*,#176,.F.);
#225=ORIENTED_EDGE('',*,*,#179,.T.);
#226=ORIENTED_EDGE('',*,*,#180,.F.);
#227=ORIENTED_EDGE('',*,*,#181,.T.);
#228=ORIENTED_EDGE('',*,*,#179,.F.);
#229=ORIENTED_EDGE('',*,*,#175,.F.);
#230=ORIENTED_EDGE('',*,*,#181,.F.);
#231=ORIENTED_EDGE('',*,*,#182,.T.);
#232=ORIENTED_EDGE('',*,*,#178,.F.);
#233=ORIENTED_EDGE('',*,*,#177,.F.);
#234=ORIENTED_EDGE('',*,*,#183,.T.);
#235=ORIENTED_EDGE('',*,*,#184,.T.);
#236=ORIENTED_EDGE('',*,*,#184,.F.);
#237=ORIENTED_EDGE('',*,*,#185,.T.);
#238=ORIENTED_EDGE('',*,*,#186,.F.);
#239=ORIENTED_EDGE('',*,*,#187,.F.);
#240=ORIENTED_EDGE('',*,*,#188,.T.);
#241=ORIENTED_EDGE('',*,*,#183,.F.);
#242=ORIENTED_EDGE('',*,*,#185,.F.);
#243=ORIENTED_EDGE('',*,*,#188,.F.);
#244=ORIENTED_EDGE('',*,*,#189,.T.);
#245=ORIENTED_EDGE('',*,*,#190,.T.);
#246=ORIENTED_EDGE('',*,*,#190,.F.);
#247=ORIENTED_EDGE('',*,*,#191,.T.);
#248=ORIENTED_EDGE('',*,*,#192,.F.);
#249=ORIENTED_EDGE('',*,*,#193,.F.);
#250=ORIENTED_EDGE('',*,*,#194,.T.);
#251=ORIENTED_EDGE('',*,*,#189,.F.);
#252=ORIENTED_EDGE('',*,*,#191,.F.);
#253=ORIENTED_EDGE('',*,*,#194,.F.);
#254=ORIENTED_EDGE('',*,*,#195,.T.);
#255=ORIENTED_EDGE('',*,*,#196,.T.);
#256=ORIENTED_EDGE('',*,*,#196,.F.);
#257=ORIENTED_EDGE('',*,*,#197,.T.);
#258=ORIENTED_EDGE('',*,*,#198,.F.);
#259=ORIENTED_EDGE('',*,*,#199,.F.);
#260=ORIENTED_EDGE('',*,*,#200,.T.);
#261=ORIENTED_EDGE('',*,*,#195,.F.);
#262=ORIENTED_EDGE('',*,*,#197,.F.);
#263=ORIENTED_EDGE('',*,*,#200,.F.);
#264=ORIENTED_EDGE('',*,*,#201,.T.);
#265=ORIENTED_EDGE('',*,*,#202,.T.);
#266=ORIENTED_EDGE('',*,*,#202,.F.);
#267=ORIENTED_EDGE('',*,*,#203,.T.);
#268=ORIENTED_EDGE('',*,*,#204,.F.);
#269=ORIENTED_EDGE('',*,*,#205,.F.);
#270=ORIENTED_EDGE('',*,*,#206,.T.);
#271=ORIENTED_EDGE('',*,*,#201,.F.);
#272=ORIENTED_EDGE('',*,*,#203,.F.);
#273=ORIENTED_EDGE('',*,*,#206,.F.);
#274=ORIENTED_EDGE('',*,*,#207,.T.);
#275=ORIENTED_EDGE('',*,*,#208,.T.);
#276=ORIENTED_EDGE('',*,*,#209,.T.);
#277=ORIENTED_EDGE('',*,*,#210,.T.);
#278=ORIENTED_EDGE('',*,*,#208,.F.);
#279=ORIENTED_EDGE('',*,*,#211,.T.);
#280=ORIENTED_EDGE('',*,*,#210,.F.);
#281=ORIENTED_EDGE('',*,*,#212,.T.);
#282=ORIENTED_EDGE('',*,*,#213,.F.);
#283=ORIENTED_EDGE('',*,*,#212,.F.);
#284=ORIENTED_EDGE('',*,*,#209,.F.);
#285=ORIENTED_EDGE('',*,*,#180,.T.);
#286=ORIENTED_EDGE('',*,*,#207,.F.);
#287=ORIENTED_EDGE('',*,*,#211,.F.);
#288=ORIENTED_EDGE('',*,*,#214,.T.);
#289=ORIENTED_EDGE('',*,*,#215,.T.);
#290=ORIENTED_EDGE('',*,*,#182,.F.);
#291=ORIENTED_EDGE('',*,*,#215,.F.);
#292=ORIENTED_EDGE('',*,*,#216,.F.);
#293=ORIENTED_EDGE('',*,*,#217,.F.);
#294=ORIENTED_EDGE('',*,*,#214,.F.);
#295=ORIENTED_EDGE('',*,*,#216,.T.);
#296=ORIENTED_EDGE('',*,*,#218,.T.);
#297=ORIENTED_EDGE('',*,*,#219,.F.);
#298=ORIENTED_EDGE('',*,*,#218,.F.);
#299=ORIENTED_EDGE('',*,*,#217,.T.);
#300=ORIENTED_EDGE('',*,*,#219,.T.);
#301=ORIENTED_EDGE('',*,*,#186,.T.);
#302=ORIENTED_EDGE('',*,*,#187,.T.);
#303=ORIENTED_EDGE('',*,*,#192,.T.);
#304=ORIENTED_EDGE('',*,*,#193,.T.);
#305=ORIENTED_EDGE('',*,*,#198,.T.);
#306=ORIENTED_EDGE('',*,*,#199,.T.);
#307=ORIENTED_EDGE('',*,*,#204,.T.);
#308=ORIENTED_EDGE('',*,*,#205,.T.);
#309=ORIENTED_EDGE('',*,*,#213,.T.);
#310=TOROIDAL_SURFACE('',#344,15.,4.);
#311=TOROIDAL_SURFACE('',#378,9.6,2.);
#312=ADVANCED_FACE('',(#63),#310,.F.);
#313=ADVANCED_FACE('',(#64),#55,.T.);
#314=ADVANCED_FACE('',(#65,#19),#27,.T.);
#315=ADVANCED_FACE('',(#66),#15,.F.);
#316=ADVANCED_FACE('',(#67),#56,.F.);
#317=ADVANCED_FACE('',(#68),#16,.F.);
#318=ADVANCED_FACE('',(#69),#57,.F.);
#319=ADVANCED_FACE('',(#70),#17,.F.);
#320=ADVANCED_FACE('',(#71),#58,.F.);
#321=ADVANCED_FACE('',(#72),#18,.F.);
#322=ADVANCED_FACE('',(#73),#59,.F.);
#323=ADVANCED_FACE('',(#74),#311,.T.);
#324=ADVANCED_FACE('',(#75),#60,.F.);
#325=ADVANCED_FACE('',(#76,#20),#28,.T.);
#326=ADVANCED_FACE('',(#77),#61,.T.);
#327=ADVANCED_FACE('',(#78,#21),#29,.T.);
#328=ADVANCED_FACE('',(#79),#62,.T.);
#329=ADVANCED_FACE('',(#80,#22,#23,#24,#25,#26),#30,.F.);
#330=CLOSED_SHELL('',(#312,#313,#314,#315,#316,#317,#318,#319,#320,#321,
#322,#323,#324,#325,#326,#327,#328,#329));
#331=DERIVED_UNIT_ELEMENT(#333,1.);
#332=DERIVED_UNIT_ELEMENT(#615,3.);
#333=(
MASS_UNIT()
NAMED_UNIT(*)
SI_UNIT($,.GRAM.)
);
#334=DERIVED_UNIT((#331,#332));
#335=MEASURE_REPRESENTATION_ITEM('density measure',
POSITIVE_RATIO_MEASURE(8.47),#334);
#336=PROPERTY_DEFINITION_REPRESENTATION(#341,#338);
#337=PROPERTY_DEFINITION_REPRESENTATION(#342,#339);
#338=REPRESENTATION('material name',(#340),#612);
#339=REPRESENTATION('density',(#335),#612);
#340=DESCRIPTIVE_REPRESENTATION_ITEM('Laiton, jaune doux',
'Laiton, jaune doux');
#341=PROPERTY_DEFINITION('material property','material name',#622);
#342=PROPERTY_DEFINITION('material property','density of part',#622);
#343=AXIS2_PLACEMENT_3D('placement',#511,#395,#396);
#344=AXIS2_PLACEMENT_3D('',#512,#397,#398);
#345=AXIS2_PLACEMENT_3D('',#515,#399,#400);
#346=AXIS2_PLACEMENT_3D('',#517,#401,#402);
#347=AXIS2_PLACEMENT_3D('',#519,#403,#404);
#348=AXIS2_PLACEMENT_3D('',#520,#405,#406);
#349=AXIS2_PLACEMENT_3D('',#521,#407,#408);
#350=AXIS2_PLACEMENT_3D('',#522,#409,#410);
#351=AXIS2_PLACEMENT_3D('',#524,#411,#412);
#352=AXIS2_PLACEMENT_3D('',#526,#414,#415);
#353=AXIS2_PLACEMENT_3D('',#528,#416,#417);
#354=AXIS2_PLACEMENT_3D('',#529,#418,#419);
#355=AXIS2_PLACEMENT_3D('',#532,#420,#421);
#356=AXIS2_PLACEMENT_3D('',#535,#423,#424);
#357=AXIS2_PLACEMENT_3D('',#536,#425,#426);
#358=AXIS2_PLACEMENT_3D('',#539,#427,#428);
#359=AXIS2_PLACEMENT_3D('',#540,#429,#430);
#360=AXIS2_PLACEMENT_3D('',#542,#432,#433);
#361=AXIS2_PLACEMENT_3D('',#545,#434,#435);
#362=AXIS2_PLACEMENT_3D('',#548,#437,#438);
#363=AXIS2_PLACEMENT_3D('',#549,#439,#440);
#364=AXIS2_PLACEMENT_3D('',#552,#441,#442);
#365=AXIS2_PLACEMENT_3D('',#553,#443,#444);
#366=AXIS2_PLACEMENT_3D('',#555,#446,#447);
#367=AXIS2_PLACEMENT_3D('',#558,#448,#449);
#368=AXIS2_PLACEMENT_3D('',#561,#451,#452);
#369=AXIS2_PLACEMENT_3D('',#562,#453,#454);
#370=AXIS2_PLACEMENT_3D('',#565,#455,#456);
#371=AXIS2_PLACEMENT_3D('',#566,#457,#458);
#372=AXIS2_PLACEMENT_3D('',#568,#460,#461);
#373=AXIS2_PLACEMENT_3D('',#571,#462,#463);
#374=AXIS2_PLACEMENT_3D('',#574,#465,#466);
#375=AXIS2_PLACEMENT_3D('',#575,#467,#468);
#376=AXIS2_PLACEMENT_3D('',#578,#469,#470);
#377=AXIS2_PLACEMENT_3D('',#579,#471,#472);
#378=AXIS2_PLACEMENT_3D('',#581,#474,#475);
#379=AXIS2_PLACEMENT_3D('',#584,#476,#477);
#380=AXIS2_PLACEMENT_3D('',#586,#478,#479);
#381=AXIS2_PLACEMENT_3D('',#588,#480,#481);
#382=AXIS2_PLACEMENT_3D('',#589,#482,#483);
#383=AXIS2_PLACEMENT_3D('',#590,#484,#485);
#384=AXIS2_PLACEMENT_3D('',#591,#486,#487);
#385=AXIS2_PLACEMENT_3D('',#594,#489,#490);
#386=AXIS2_PLACEMENT_3D('',#595,#491,#492);
#387=AXIS2_PLACEMENT_3D('',#596,#493,#494);
#388=AXIS2_PLACEMENT_3D('',#598,#495,#496);
#389=AXIS2_PLACEMENT_3D('',#600,#498,#499);
#390=AXIS2_PLACEMENT_3D('',#603,#500,#501);
#391=AXIS2_PLACEMENT_3D('',#604,#502,#503);
#392=AXIS2_PLACEMENT_3D('',#605,#504,#505);
#393=AXIS2_PLACEMENT_3D('',#608,#507,#508);
#394=AXIS2_PLACEMENT_3D('',#609,#509,#510);
#395=DIRECTION('axis',(0.,0.,1.));
#396=DIRECTION('refdir',(1.,0.,0.));
#397=DIRECTION('center_axis',(0.,-1.,0.));
#398=DIRECTION('ref_axis',(0.,0.,-1.));
#399=DIRECTION('center_axis',(0.,-1.,0.));
#400=DIRECTION('ref_axis',(-1.,0.,0.));
#401=DIRECTION('center_axis',(-1.,0.,-1.22464679914735E-16));
#402=DIRECTION('ref_axis',(-1.22464679914735E-16,0.,1.));
#403=DIRECTION('center_axis',(0.,1.,0.));
#404=DIRECTION('ref_axis',(-1.,0.,0.));
#405=DIRECTION('center_axis',(0.,1.,0.));
#406=DIRECTION('ref_axis',(-1.,0.,0.));
#407=DIRECTION('center_axis',(0.,-1.,0.));
#408=DIRECTION('ref_axis',(-1.,0.,0.));
#409=DIRECTION('center_axis',(0.,1.,0.));
#410=DIRECTION('ref_axis',(-1.,0.,0.));
#411=DIRECTION('center_axis',(0.,1.,0.));
#412=DIRECTION('ref_axis',(-1.,0.,0.));
#413=DIRECTION('',(0.,-1.,0.));
#414=DIRECTION('center_axis',(0.,1.,0.));
#415=DIRECTION('ref_axis',(0.,0.,1.));
#416=DIRECTION('center_axis',(0.,1.,0.));
#417=DIRECTION('ref_axis',(-1.,0.,0.));
#418=DIRECTION('center_axis',(0.,-1.,0.));
#419=DIRECTION('ref_axis',(1.,0.,0.));
#420=DIRECTION('center_axis',(0.,-1.,0.));
#421=DIRECTION('ref_axis',(1.,0.,0.));
#422=DIRECTION('',(0.857167300702112,0.515038074910054,1.04972719113862E-16));
#423=DIRECTION('center_axis',(0.,-1.,0.));
#424=DIRECTION('ref_axis',(1.,0.,0.));
#425=DIRECTION('center_axis',(0.,-1.,0.));
#426=DIRECTION('ref_axis',(1.,0.,0.));
#427=DIRECTION('center_axis',(0.,1.,0.));
#428=DIRECTION('ref_axis',(1.,0.,0.));
#429=DIRECTION('center_axis',(0.,1.,0.));
#430=DIRECTION('ref_axis',(1.,0.,0.));
#431=DIRECTION('',(0.,1.,0.));
#432=DIRECTION('center_axis',(0.,-1.,0.));
#433=DIRECTION('ref_axis',(1.,0.,0.));
#434=DIRECTION('center_axis',(0.,-1.,0.));
#435=DIRECTION('ref_axis',(1.,0.,0.));
#436=DIRECTION('',(0.857167300702112,0.515038074910054,1.04972719113862E-16));
#437=DIRECTION('center_axis',(0.,-1.,0.));
#438=DIRECTION('ref_axis',(1.,0.,0.));
#439=DIRECTION('center_axis',(0.,-1.,0.));
#440=DIRECTION('ref_axis',(1.,0.,0.));
#441=DIRECTION('center_axis',(0.,1.,0.));
#442=DIRECTION('ref_axis',(1.,0.,0.));
#443=DIRECTION('center_axis',(0.,1.,0.));
#444=DIRECTION('ref_axis',(1.,0.,0.));
#445=DIRECTION('',(0.,1.,0.));
#446=DIRECTION('center_axis',(0.,-1.,0.));
#447=DIRECTION('ref_axis',(1.,0.,0.));
#448=DIRECTION('center_axis',(0.,-1.,0.));
#449=DIRECTION('ref_axis',(1.,0.,0.));
#450=DIRECTION('',(0.857167300702112,0.515038074910054,1.04972719113862E-16));
#451=DIRECTION('center_axis',(0.,-1.,0.));
#452=DIRECTION('ref_axis',(1.,0.,0.));
#453=DIRECTION('center_axis',(0.,-1.,0.));
#454=DIRECTION('ref_axis',(1.,0.,0.));
#455=DIRECTION('center_axis',(0.,1.,0.));
#456=DIRECTION('ref_axis',(1.,0.,0.));
#457=DIRECTION('center_axis',(0.,1.,0.));
#458=DIRECTION('ref_axis',(1.,0.,0.));
#459=DIRECTION('',(0.,1.,0.));
#460=DIRECTION('center_axis',(0.,-1.,0.));
#461=DIRECTION('ref_axis',(1.,0.,0.));
#462=DIRECTION('center_axis',(0.,-1.,0.));
#463=DIRECTION('ref_axis',(1.,0.,0.));
#464=DIRECTION('',(0.857167300702112,0.515038074910054,1.04972719113862E-16));
#465=DIRECTION('center_axis',(0.,-1.,0.));
#466=DIRECTION('ref_axis',(1.,0.,0.));
#467=DIRECTION('center_axis',(0.,-1.,0.));
#468=DIRECTION('ref_axis',(1.,0.,0.));
#469=DIRECTION('center_axis',(0.,1.,0.));
#470=DIRECTION('ref_axis',(1.,0.,0.));
#471=DIRECTION('center_axis',(0.,1.,0.));
#472=DIRECTION('ref_axis',(1.,0.,0.));
#473=DIRECTION('',(0.,1.,0.));
#474=DIRECTION('center_axis',(0.,-1.,0.));
#475=DIRECTION('ref_axis',(0.,0.,-1.));
#476=DIRECTION('center_axis',(0.,1.,0.));
#477=DIRECTION('ref_axis',(-1.,0.,0.));
#478=DIRECTION('center_axis',(-1.,0.,-1.22464679914735E-16));
#479=DIRECTION('ref_axis',(-1.22464679914735E-16,0.,1.));
#480=DIRECTION('center_axis',(0.,-1.,0.));
#481=DIRECTION('ref_axis',(-1.,0.,0.));
#482=DIRECTION('center_axis',(0.,-1.,0.));
#483=DIRECTION('ref_axis',(-1.,0.,0.));
#484=DIRECTION('center_axis',(0.,1.,0.));
#485=DIRECTION('ref_axis',(-1.,0.,0.));
#486=DIRECTION('center_axis',(0.,-1.,0.));
#487=DIRECTION('ref_axis',(-1.,0.,0.));
#488=DIRECTION('',(0.,-1.,0.));
#489=DIRECTION('center_axis',(0.,1.,0.));
#490=DIRECTION('ref_axis',(-1.,0.,0.));
#491=DIRECTION('center_axis',(0.,1.,0.));
#492=DIRECTION('ref_axis',(0.,0.,1.));
#493=DIRECTION('center_axis',(0.,-1.,0.));
#494=DIRECTION('ref_axis',(-1.,0.,0.));
#495=DIRECTION('center_axis',(0.,1.,0.));
#496=DIRECTION('ref_axis',(-1.,0.,0.));
#497=DIRECTION('',(0.,1.,0.));
#498=DIRECTION('center_axis',(0.,1.,0.));
#499=DIRECTION('ref_axis',(0.,0.,1.));
#500=DIRECTION('center_axis',(0.,-1.,0.));
#501=DIRECTION('ref_axis',(1.,0.,0.));
#502=DIRECTION('center_axis',(0.,-1.,0.));
#503=DIRECTION('ref_axis',(1.,0.,0.));
#504=DIRECTION('center_axis',(0.,1.,0.));
#505=DIRECTION('ref_axis',(1.,0.,0.));
#506=DIRECTION('',(0.,-1.,0.));
#507=DIRECTION('center_axis',(0.,-1.,0.));
#508=DIRECTION('ref_axis',(1.,0.,0.));
#509=DIRECTION('center_axis',(0.,1.,0.));
#510=DIRECTION('ref_axis',(0.,0.,1.));
#511=CARTESIAN_POINT('',(0.,0.,0.));
#512=CARTESIAN_POINT('Origin',(0.,12.8,0.));
#513=CARTESIAN_POINT('',(11.,12.8,1.34711147906209E-15));
#514=CARTESIAN_POINT('',(-1.34711147906209E-15,12.8,11.));
#515=CARTESIAN_POINT('Origin',(0.,12.8,0.));
#516=CARTESIAN_POINT('',(-1.83697019872103E-15,8.8,15.));
#517=CARTESIAN_POINT('Origin',(-1.83697019872103E-15,12.8,15.));
#518=CARTESIAN_POINT('',(15.,8.8,-1.83697019872103E-15));
#519=CARTESIAN_POINT('Origin',(0.,8.8,0.));
#520=CARTESIAN_POINT('Origin',(0.,8.8,0.));
#521=CARTESIAN_POINT('Origin',(0.,12.8,0.));
#522=CARTESIAN_POINT('Origin',(0.,8.8,0.));
#523=CARTESIAN_POINT('',(11.,23.8,-1.34711147906209E-15));
#524=CARTESIAN_POINT('Origin',(0.,23.8,0.));
#525=CARTESIAN_POINT('',(11.,8.8,-1.34711147906209E-15));
#526=CARTESIAN_POINT('Origin',(1.78912119180571E-15,8.8,4.00080369234291E-16));
#527=CARTESIAN_POINT('',(17.9,8.8,-2.19211777047376E-15));
#528=CARTESIAN_POINT('Origin',(0.,8.8,0.));
#529=CARTESIAN_POINT('Origin',(0.,7.48699753172184,-12.5));
#530=CARTESIAN_POINT('',(1.621,7.,-12.5));
#531=CARTESIAN_POINT('',(-1.621,7.,-12.5));
#532=CARTESIAN_POINT('Origin',(0.,7.,-12.5));
#533=CARTESIAN_POINT('',(0.,7.97399506344368,-12.5));
#534=CARTESIAN_POINT('',(-0.8105,7.48699753172184,-12.5));
#535=CARTESIAN_POINT('Origin',(0.,7.,-12.5));
#536=CARTESIAN_POINT('Origin',(0.,3.5,-12.5));
#537=CARTESIAN_POINT('',(1.621,0.,-12.5));
#538=CARTESIAN_POINT('',(-1.621,0.,-12.5));
#539=CARTESIAN_POINT('Origin',(0.,0.,-12.5));
#540=CARTESIAN_POINT('Origin',(0.,0.,-12.5));
#541=CARTESIAN_POINT('',(-1.621,3.5,-12.5));
#542=CARTESIAN_POINT('Origin',(0.,7.48699753172184,12.5));
#543=CARTESIAN_POINT('',(1.621,7.,12.5));
#544=CARTESIAN_POINT('',(-1.621,7.,12.5));
#545=CARTESIAN_POINT('Origin',(0.,7.,12.5));
#546=CARTESIAN_POINT('',(0.,7.97399506344368,12.5));
#547=CARTESIAN_POINT('',(-0.8105,7.48699753172184,12.5));
#548=CARTESIAN_POINT('Origin',(0.,7.,12.5));
#549=CARTESIAN_POINT('Origin',(0.,3.5,12.5));
#550=CARTESIAN_POINT('',(1.621,0.,12.5));
#551=CARTESIAN_POINT('',(-1.621,0.,12.5));
#552=CARTESIAN_POINT('Origin',(0.,0.,12.5));
#553=CARTESIAN_POINT('Origin',(0.,0.,12.5));
#554=CARTESIAN_POINT('',(-1.621,3.5,12.5));
#555=CARTESIAN_POINT('Origin',(12.5,7.48699753172184,0.));
#556=CARTESIAN_POINT('',(14.121,7.,0.));
#557=CARTESIAN_POINT('',(10.879,7.,-1.98515246141786E-16));
#558=CARTESIAN_POINT('Origin',(12.5,7.,0.));
#559=CARTESIAN_POINT('',(12.5,7.97399506344368,0.));
#560=CARTESIAN_POINT('',(11.6895,7.48699753172184,-9.9257623070893E-17));
#561=CARTESIAN_POINT('Origin',(12.5,7.,0.));
#562=CARTESIAN_POINT('Origin',(12.5,3.5,0.));
#563=CARTESIAN_POINT('',(14.121,0.,0.));
#564=CARTESIAN_POINT('',(10.879,0.,-1.98515246141786E-16));
#565=CARTESIAN_POINT('Origin',(12.5,0.,0.));
#566=CARTESIAN_POINT('Origin',(12.5,0.,0.));
#567=CARTESIAN_POINT('',(10.879,3.5,-1.98515246141786E-16));
#568=CARTESIAN_POINT('Origin',(-12.5,7.48699753172184,0.));
#569=CARTESIAN_POINT('',(-10.879,7.,0.));
#570=CARTESIAN_POINT('',(-14.121,7.,-1.98515246141786E-16));
#571=CARTESIAN_POINT('Origin',(-12.5,7.,0.));
#572=CARTESIAN_POINT('',(-12.5,7.97399506344368,0.));
#573=CARTESIAN_POINT('',(-13.3105,7.48699753172184,-9.9257623070893E-17));
#574=CARTESIAN_POINT('Origin',(-12.5,7.,0.));
#575=CARTESIAN_POINT('Origin',(-12.5,3.5,0.));
#576=CARTESIAN_POINT('',(-10.879,0.,0.));
#577=CARTESIAN_POINT('',(-14.121,0.,-1.98515246141786E-16));
#578=CARTESIAN_POINT('Origin',(-12.5,0.,0.));
#579=CARTESIAN_POINT('Origin',(-12.5,0.,0.));
#580=CARTESIAN_POINT('',(-14.121,3.5,-1.98515246141786E-16));
#581=CARTESIAN_POINT('Origin',(0.,21.8,0.));
#582=CARTESIAN_POINT('',(9.6,23.8,-1.17566092718146E-15));
#583=CARTESIAN_POINT('',(-1.17566092718146E-15,23.8,9.6));
#584=CARTESIAN_POINT('Origin',(0.,23.8,0.));
#585=CARTESIAN_POINT('',(-9.30731567351989E-16,21.8,7.6));
#586=CARTESIAN_POINT('Origin',(-1.17566092718146E-15,21.8,9.6));
#587=CARTESIAN_POINT('',(7.6,21.8,9.30731567351989E-16));
#588=CARTESIAN_POINT('Origin',(0.,21.8,0.));
#589=CARTESIAN_POINT('Origin',(0.,21.8,0.));
#590=CARTESIAN_POINT('Origin',(0.,23.8,0.));
#591=CARTESIAN_POINT('Origin',(0.,23.8,0.));
#592=CARTESIAN_POINT('',(7.6,0.,-9.30731567351989E-16));
#593=CARTESIAN_POINT('',(7.6,23.8,9.30731567351989E-16));
#594=CARTESIAN_POINT('Origin',(0.,0.,0.));
#595=CARTESIAN_POINT('Origin',(-4.48690509505221E-16,23.8,0.));
#596=CARTESIAN_POINT('Origin',(0.,8.8,0.));
#597=CARTESIAN_POINT('',(17.9,7.3,-2.19211777047376E-15));
#598=CARTESIAN_POINT('Origin',(0.,7.3,0.));
#599=CARTESIAN_POINT('',(17.9,8.8,2.19211777047376E-15));
#600=CARTESIAN_POINT('Origin',(-1.78912119180571E-15,7.3,-4.00080369234291E-16));
#601=CARTESIAN_POINT('',(18.5,7.3,-2.2655965784226E-15));
#602=CARTESIAN_POINT('',(-18.5,7.3,2.2655965784226E-15));
#603=CARTESIAN_POINT('Origin',(0.,7.3,0.));
#604=CARTESIAN_POINT('Origin',(0.,7.3,0.));
#605=CARTESIAN_POINT('Origin',(0.,0.,0.));
#606=CARTESIAN_POINT('',(-18.5,0.,2.2655965784226E-15));
#607=CARTESIAN_POINT('',(-18.5,0.,2.2655965784226E-15));
#608=CARTESIAN_POINT('Origin',(0.,0.,0.));
#609=CARTESIAN_POINT('Origin',(1.78912119180571E-15,0.,4.00080369234291E-16));
#610=UNCERTAINTY_MEASURE_WITH_UNIT(LENGTH_MEASURE(0.01),#614,
'DISTANCE_ACCURACY_VALUE',
'Maximum model space distance between geometric entities at asserted c
onnectivities');
#611=UNCERTAINTY_MEASURE_WITH_UNIT(LENGTH_MEASURE(0.01),#614,
'DISTANCE_ACCURACY_VALUE',
'Maximum model space distance between geometric entities at asserted c
onnectivities');
#612=(
GEOMETRIC_REPRESENTATION_CONTEXT(3)
GLOBAL_UNCERTAINTY_ASSIGNED_CONTEXT((#610))
GLOBAL_UNIT_ASSIGNED_CONTEXT((#614,#616,#617))
REPRESENTATION_CONTEXT('','3D')
);
#613=(
GEOMETRIC_REPRESENTATION_CONTEXT(3)
GLOBAL_UNCERTAINTY_ASSIGNED_CONTEXT((#611))
GLOBAL_UNIT_ASSIGNED_CONTEXT((#614,#616,#617))
REPRESENTATION_CONTEXT('','3D')
);
#614=(
LENGTH_UNIT()
NAMED_UNIT(*)
SI_UNIT(.MILLI.,.METRE.)
);
#615=(
LENGTH_UNIT()
NAMED_UNIT(*)
SI_UNIT(.CENTI.,.METRE.)
);
#616=(
NAMED_UNIT(*)
PLANE_ANGLE_UNIT()
SI_UNIT($,.RADIAN.)
);
#617=(
NAMED_UNIT(*)
SI_UNIT($,.STERADIAN.)
SOLID_ANGLE_UNIT()
);
#618=SHAPE_DEFINITION_REPRESENTATION(#619,#620);
#619=PRODUCT_DEFINITION_SHAPE('',$,#622);
#620=SHAPE_REPRESENTATION('',(#343),#612);
#621=PRODUCT_DEFINITION_CONTEXT('part definition',#626,'design');
#622=PRODUCT_DEFINITION('ES230-6M-R-7','ES230-6M-R-7',#623,#621);
#623=PRODUCT_DEFINITION_FORMATION('0',$,#628);
#624=PRODUCT_RELATED_PRODUCT_CATEGORY('ES230-6M-R-7','ES230-6M-R-7',(#628));
#625=APPLICATION_PROTOCOL_DEFINITION('international standard',
'automotive_design',2009,#626);
#626=APPLICATION_CONTEXT(
'Core Data for Automotive Mechanical Design Process');
#627=PRODUCT_CONTEXT('part definition',#626,'mechanical');
#628=PRODUCT('ES230-6M-R-7','ES230-6M-R-7',$,(#627));
#629=PRESENTATION_STYLE_ASSIGNMENT((#630));
#630=SURFACE_STYLE_USAGE(.BOTH.,#633);
#631=SURFACE_STYLE_RENDERING_WITH_PROPERTIES($,#637,(#632));
#632=SURFACE_STYLE_TRANSPARENT(1.);
#633=SURFACE_SIDE_STYLE('',(#634,#631));
#634=SURFACE_STYLE_FILL_AREA(#635);
#635=FILL_AREA_STYLE('',(#636));
#636=FILL_AREA_STYLE_COLOUR('',#637);
#637=COLOUR_RGB('',0.796078431372549,0.603921568627451,0.231372549019608);
ENDSEC;
END-ISO-10303-21;
